Oops, an error
Loading. Please wait.

4U Tab

version 1
version 1

Acoustic

1,744 views 183 this week
no commentswrite comment
1 2 3 4 5
x 6
add to favorites
launch autoscroll
font size
0
reset
how to read this tab
guitar tuner
Autoscroll
slow
fast
+/-
esc
set tempo
stop
Help us to improve Ultimate-Guitar.com Take our survey!
×
Author
Simply play this riff the whole song.
Always mute chord after the last tone is played.

[Main riff]
  C                 Am                Em                G
e|------0-|--------|--------|--------|--------|--------|--------|--------|
B|--------|--------|------1-|--------|------0-|--------|--------|--------|
G|--------|--------|--------|--------|--------|--------|------0-|------0-|
D|--2-----|--------|--2-----|--------|--------|--------|--------|----0---|
A|3---3---|--------|0---0---|--------|--2-----|--------|--2-----|--2-----|
E|--------|--------|--------|--------|0---0---|--------|3---3---|3-------|

  C                 Am                Em                G
e|------0-|--------|--------|--------|--------|--------|--------|--------|
B|--------|--------|------1-|--------|------0-|--------|--------|--------|
G|--------|--------|--------|--------|--------|--------|------0-|--------|
D|--2-----|--------|--2-----|--------|--------|--------|--------|--------|
A|3---3---|--------|0---0---|--------|--2-----|--------|--2-----|--------|
E|--------|--------|--------|--------|0---0---|--------|3---3---|--------|
Suggest correction
comments
print report bad tab
guest
You may want to rate the tab now too:
select rating
Wanna post a correction for this tab? Suggest correction