Oops, an error
Loading. Please wait.

Aint Got The Blues Guitar Pro

5,299 views 15 this week
6 commentsread comments
1 2 3 4 5
please rate
add to favorites
guitar tuner
Autoscroll
slow
fast
+/-
esc
set tempo
stop
Help us to improve Ultimate-Guitar.com Take our survey!
×
Author
Difficulty
Filesize
Instruments
intermediate
12 Kb
rhythm guitar, lead guitar
"Aint Got The Blues"
demo version
Play now

or get full version for Free

Get full version now!
To learn and play this song
in Tab Pro, start free trial
Start free trial

or get $10 off Welcome Bonus

Get welcome bonus
Get access to Tab Pro version of “Aint Got The Blues”!
Tab Pro is a premium guitar tab service, available on PC, Mac, iOS and Android
START FREE TRIAL
Your download will start in 7 seconds
×
Like this song? We have more like this. Follow us on Facebook for more great tabs and guitar-related content
To download “Aint Got The Blues” Guitar Pro tab click button below
Please note that you must have Guitar Pro software installed on your
computer in order to view this file.
Give kudos to tab author, rate the tab!
1 2 3 4 5
comments
report bad tab
6 comments total. Showing first comments.
0 reply
Bruforditz 496 wrote on August 2 2013, 12:13 pm

For more details, this is my video in YouTube playing this transcription...

http://www.youtube.com/watch?v=xVWtPP6t_4s

Thanks!

0 reply
Bruforditz 496 wrote on January 6 2014, 07:23 am

Charlie's acoustic solo:

(/) Slide Up  (\) Slide Down  (h) Hammer On  (p) Pull Off  (b) Bend (r) Release (v) Vibrato

E|--5h3-------------------------------------
B|--X----4h5--1--------------------------1--
G|--X------------2h0-------0-------------0--
D|--X-----------------1h2-----1h0-----2--2--
A|---------------------------------3--------
E|------------------------------------------

E|-----------------------------------
B|-----0-----0-----------------------
G|--3-----3-----0--------------------
D|-----------------2h0-------0h2/5v--
A|----------------------1h2----------
E|-----------------------------------

E|--5--4--3--2--1h2----------------------------
B|--X----------------3h1-----------------------
G|--X---------------------2h0------------------
D|--X--------------------------3h4--0--0--2h0--
A|---------------------------------------------
E|---------------------------------------------

E|-------------------------------------------
B|----------------------------------------1--
G|--0-------------------------------------3--
D|-----2h0-------0--2h0-------------------2--
A|----------1h2----------1h0-----0--1--2--3--
E|----------------------------3--------------
http://www.guitartabcreator.com

0 reply
Bruforditz 496 wrote on January 6 2014, 07:25 am

Here on video: http://www.youtube.com/watch?v=fcurrT9Gj9A

guest
You may want to rate the tab now too:
select rating
Please do not post tabs as comments. Select "correction" instead!