Oops, an error
Loading. Please wait.

Freedom Song Tab

version 1
version 1

Intro

3,526 views 9 this week
no commentswrite comment
1 2 3 4 5
please rate
add to favorites
launch autoscroll
font size
0
reset
how to read this tab
guitar tuner
Autoscroll
slow
fast
+/-
esc
set tempo
stop
Help us to improve Ultimate-Guitar.com Take our survey!
×
Author
Difficulty
Tuning
intermediate
D A D G B E
 
-------------------------------------------------------------------------------
                             SONG NAME - Band Name
-------------------------------------------------------------------------------
Tabbed by:
E-mail:

Tuning: Drop D

e|----------------------------------------------------------------------------|
B|-3~-3p1p0-1-1p0-----------------------------------------------------------3~|
G|-2~-------------2/4-2h4p2---------2h4p2---2----2h4p2---2------------------2~|
D|-0~-----------------------3b4-----------5------------5--------------------0~|
A|------------------------------0-------------3------------2--2b3p0-----------|
E|-------------------------------------------------------------------3b4-0~---|

Still workin' on the rest - check out my other BBS tabs!

************************************

| /   slide up
| \   slide down
| h   hammer-on
| p   pull-off
| ~   vibrato
| +   harmonic
| x   Mute note
| b   Bend
| pb  Pre-bend
| br  Bend release
| pbr Pre-bend release
| brb Bend release bend

************************************
Suggest correction
Give kudos to tab author, rate the tab!
1 2 3 4 5
comments
print report bad tab
guest
You may want to rate the tab now too:
select rating
Please do not post tabs as comments. Select "correction" instead!