Oops, an error
Loading. Please wait.

Like I Am chords

133 views 15 this week
no commentswrite comment
1 2 3 4 5
3 more votes to show rating
add to favorites
×
Save as Personal and add changes to this tab that will be seen only by you. Learn more ›
×
You can save this tab as Personal to edit and correct it or add notes. All changes will be seen only by you. Learn more »
launch autoscroll
font size
0
reset
transpose
0
reset
display chords
guitar tuner
edit
Autoscroll
slow
fast
+/-
esc
set tempo
stop
About this tab version
Chord version with lyrics to compliment the existing tab version. Was this info helpful? Yes No
Strumming
There is no strumming pattern for this song yet. and get +5 IQ
[Intro]
e|--------2---------|--------2---------|--------2---------|--------2---------|
B|--------3---------|--------3---------|--------3---------|--------3---------|
G|----2---2---------|----2---2---------|----2---2---------|----2---2---------|
D|----2---0---------|----2---0---------|----2---0---------|----2---0---------|
A|-3b-0-------------|-3b-0------------0|-3b-0------------0|-3b-0-------------|
E|------------------|------------------|------------------|------------------|

[Main Riff]
e|--------2---------|--------2---------|--------2---------|2---2---------------|
B|--------3---------|--------3---------|--------3-------xx|3---3---------------|
G|----2---2---------|----2---2---------|----2---2-------xx|2---2-----2---------|
D|----2---0---------|----2---0---------|----2---0-------xx|0---0-----2---------|
A|-3b-0------------0|-3b-0------------0|-3b-0-------------|------3p0-0---------|
E|------------------|------------------|------------------|--------------------|

[Verse 1]
e|--------2---------|--------2---------|--------2---------|2---2---------------|
B|--------3---------|--------3---------|--------3-------xx|3---3---------------|
G|----2---2---------|----2---2---------|----2---2-------xx|2---2-----2---------|
D|----2---0---------|----2---0---------|----2---0-------xx|0---0-----2---------|
A|-3b-0------------0|-3b-0------------0|-3b-0-------------|------3p0-0---------|
E|------------------|------------------|------------------|--------------------|x2
Well I’m mean as gravel I’m poor as dirt
I like things better the way they were
Well I’m strong in the head but I get things done
I spend too much money to have a little fun

[Pre-Chorus]
D                         E
  Here you are you come around
D                         E
  You want me to settle down

[Chorus]
F#m          E                D
  Before you jump you need to know
F#m            E               D
  It’s a crazy thing the way I roll
G         D              A
  I ain’t changin’ I’m a stubborn man
F#m       E       D      A
  can you love me like I am
F#m       E             D      A
  can you love me baby, like I am

[Instrumental]
e|--------2---------|--------2---------|--------2---------|2---2---------------|
B|--------3---------|--------3---------|--------3-------xx|3---3---------------|
G|----2---2---------|----2---2---------|----2---2-------xx|2---2-----2---------|
D|----2---0---------|----2---0---------|----2---0-------xx|0---0-----2---------|
A|-3b-0------------0|-3b-0------------0|-3b-0-------------|------3p0-0---------|
E|------------------|------------------|------------------|--------------------|

[Verse 2]
e|--------2---------|--------2---------|--------2---------|2---2---------------|
B|--------3---------|--------3---------|--------3-------xx|3---3---------------|
G|----2---2---------|----2---2---------|----2---2-------xx|2---2-----2---------|
D|----2---0---------|----2---0---------|----2---0-------xx|0---0-----2---------|
A|-3b-0------------0|-3b-0------------0|-3b-0-------------|------3p0-0---------|
E|------------------|------------------|------------------|--------------------|x2
Well I’m stuck in my ways and I grew up hard
I drink milk out the carton and juice from your jar
Well some people say I sleep too much
I just sleep when I can till I have to get up

[Pre-Chorus]
D                         E
  Here I am what do you think?
D                         E
  I guess a nod is as good as a wink

[Chorus]
F#m          E                D
  Before you jump you need to know
F#m            E               D
  It’s a crazy thing the way I roll
G         D              A
  I ain’t changin’ I’m a stubborn man
F#m       E       D      A
  can you love me like I am
F#m       E             D      A
  can you love me baby, like I am

[Outro]
[Main Riff]
e|--------2---------|--------2---------|--------2---------|2---2---------------|
B|--------3---------|--------3---------|--------3-------xx|3---3---------------|
G|----2---2---------|----2---2---------|----2---2-------xx|2---2-----2---------|
D|----2---0---------|----2---0---------|----2---0-------xx|0---0-----2---------|
A|-3b-0------------0|-3b-0------------0|-3b-0-------------|------3p0-0---------|
E|------------------|------------------|------------------|--------------------|



Suggest correction
Creating personal tab
Creating personal tab
You can edit any tab online and save it as your Personal.

You can edit, replace or remove any tab part or add personal notes – all changes will be seen only by you.

Personal tabs can be accessed anytime from any device, even offline.
Learn more »
Give kudos to tab author, rate the tab!
1 2 3 4 5
comments
print report bad tab
guest
You may want to rate the tab now too:
select rating
Wanna post a correction for this tab? Suggest correction