Oops, an error
Loading. Please wait.

Like I Am Tab

13,256 views 18 this week
1 commentread comment
1 2 3 4 5
x 9
add to favorites
launch autoscroll
font size
0
reset
how to read this tab
guitar tuner
×
Best way to learn
"Like I Am"
Autoscroll
slow
fast
+/-
esc
set tempo
stop
Author
Difficulty
Tuning
  follow
novice
E A D G B E
Like I Am
Blackberry Smoke

*sweet_inc*

Tuning:Standard

there are only four different parts to this song…
the main riff
the pre-chorus
the chorus, and
the bridge

intro / main riff
e|------------------|------------------|------------------|------------------|
B|--------3---------|--------3---------|--------3---------|--------3---------|
G|----2---2---------|----2---2---------|----2---2---------|----2---2---------|
D|----2---4---------|----2---4---------|----2---4---------|----2---4---------|
A|-3b-0---0---------|-3b-0---0--------0|-3b-0---0--------0|-3b-0---0---------|
E|------------------|------------------|------------------|------------------|

e|------------------|------------------|------------------|--------------------|
B|--------3---------|--------3---------|--------3-------xx|3---3---------------|
G|----2---2---------|----2---2---------|----2---2-------xx|2---2-----2---------|
D|----2---4---------|----2---4---------|----2---4-------xx|0---0-----2---------|
A|-3b-0---0--------0|-3b-0---0--------0|-3b-0---0---------|------3p0-0---------|
E|------------------|------------------|------------------|--------------------|

(repeat bars 5-8 for verse)

the pre-chorus
e|-----------0---0-------------------|
B|---3--3----0---0---3-3-------------|
G|---2--2--------0---2-2-------------|
D|---0--0--2---2-2---0-0-2-2-2-2-----|
A|---------2---2---------2-2-2-2-----|
E|---------0---0---------0-0-0-0-----|

before you jump...
e|--------0-0------------------------0-0---------------------|
B|--------0-0--3-3-3-3-3-3-3-3-------0-0--3-3-3-3-3-3-3-3----|
G|--------0-0--2-2-4-2-2-2-4-2-------0-0--2-2-4-2-2-2-4-2----|
D|---4-4--2-2--0-0-0-0-0-0-0-0--4-4--2-2--0-0-0-0-0-0-0-0----|
A|---4-4--2-2-------------------4-4--2-2---------------------|
E|---2-2--0-0-------------------2-2--0-0---------------------|

chorus
e|---3-3------------------------0---------------------0----------|
B|---3-3--3-3-------------------0--3-3----------------0-3-3------|
G|---0-0--2-2--2-2--------------0--2-2--2-------------0-2-2-2----|
D|---0-0--0-0--2-2------4-4--2-----0-0--2------4-4--2---0-0-2----|
A|-------------0-0------4-4--2----------0------4-4--2-------0----|
E|---3-3------------4-3-2-2--0-------------4-3-2-2--0------------|

bridge/solo
e|------------------0--------------------0--------|
B|------------------0--------------------0--------|
G|---4-4-4-4--------0-----4-4-4-4--------0--------|
D|---4-4-4-4--2-2-2---2---4-4-4-4--2-2-2---2------|
A|---2-2-2-2--2-2-2---2---2-2-2-2--2-2-2---2------|
E|------------0-0-0---0------------0-0-0---0------|
Suggest correction
comments
print report bad tab
1 comment total.
0 reply
waayne 10 Jan 27, 2016 05:55 PM

excellent tab

guest
You may want to rate the tab now too:
select rating
Wanna post a correction for this tab? Suggest correction