Oops, an error
Loading. Please wait.

Rock And Roll Again chords

673 views 51 this week
no commentswrite comment
1 2 3 4 5
2 more votes to show rating
add to favorites
×
Save as Personal and add changes to this tab that will be seen only by you. Learn more ›
×
You can save this tab as Personal to edit and correct it or add notes. All changes will be seen only by you. Learn more »
launch autoscroll
font size
0
reset
transpose
0
reset
simplify chords
display chords
guitar tuner
edit
Autoscroll
slow
fast
+/-
esc
set tempo
stop
Author
Difficulty
About this tab version
The chords have been taken by ear and watching some Youtube covers, therefore although it sounds good with a decent amount of distortion is not 100% accurate. The song have an upbeat shuffle feeling. I wrote down the two recurrent riffs but tempo is just approximated. Chords overall are kind of power chords shapes. Just listen to the song and you'll figure it out how to play in a few hours. Was this info helpful? Yes No
Strumming
There is no strumming pattern for this song yet. and get +5 IQ
[Riff 1]
e|-----------------|----------------|
B|-4----------7----|-8----------9---|
G|-4----------7----|-8----------9---|
D|-4----------7----|-8----------9---|
A|-2----------5----|-6----------7---|
E|-----------------|----------------|

[Riff 2]
e|-----------------|----------------|-----------------|----------------|
B|-----------------|----------------|-----------------|----------------|
G|-----------------|----------------|-----------------|----------------|
D|-----------------|----------------|-----------------|----------------|
A|--2-----4-----0--|----------------|--2-----4-----0--|----------------|
E|-----------------|---4-------2----|-----------------|---4-------2----|

[Chorus]
B                             B
You know she make me rock and roll again,
                           C#
Put the swagger in my soul again,
                        E
Push me back across the line again,
F#                            
And put the writin on the wall
E
Lit a fire under my behind,
B
Got me high didn't cost a dime,
                            C#
One thing for certain I can tell you my friend,
F#                                
My baby make me rock and roll again

[Verse]
E                 E7
She know me well, an never fail
B                    B7
She know just how to put the wind back in my sail.
E                E7
She got the key, to set me free,
G                    F#
It's just so easy to see

[Chorus]
B                             B
The way she make me rock and roll again,
                           C#
Put the dirty in my mind again,
                        E
Aint nothin to it boy she pull me back in,
F#                                
My baby make me rock and roll again

[Solo]
[Riff 2]
e|-----------------|----------------|-----------------|----------------|
B|-----------------|----------------|-----------------|----------------|
G|-----------------|----------------|-----------------|----------------|
D|-----------------|----------------|-----------------|----------------|
A|--2-----4-----0--|----------------|--2-----4-----0--|----------------|
E|-----------------|---4-------2----|-----------------|---4-------2----|

[Verse]
E                 E7
She has a thrill, up on the hill,
B                  B7
She keeps me movin when I get to second steal,
E              E7
If I get slow, she let me know,
G                    F#
I got to get up and go

[Chorus]
B                            B
Because she make me rock and roll again,
                     C#
Put the rhythm in my stride again,
                     E
Calling to me like a long lost friend,
F#                           
She put the writin on the wall
E                E7
Lit a fire under my behind,
B                 B7
Got me high didnt cost a dime,
E                     E7
One thing for certain I can tell you my friend,
F#                                
My baby make me rock and roll again
Suggest correction
Creating personal tab
Creating personal tab
You can edit any tab online and save it as your Personal.

You can edit, replace or remove any tab part or add personal notes – all changes will be seen only by you.

Personal tabs can be accessed anytime from any device, even offline.
Learn more »
Give kudos to tab author, rate the tab!
1 2 3 4 5
comments
print report bad tab
guest
You may want to rate the tab now too:
select rating
Wanna post a correction for this tab? Suggest correction