Oops, an error
Loading. Please wait.

Sanctified Woman Tab

6,091 views 36 this week
2 commentsread comments
1 2 3 4 5
excellent!
x 4
add to favorites
launch autoscroll
font size
0
reset
how to read this tab
guitar tuner
Tab Pro tools
  • play this tab
  • loop segment
  • change instrument
  • show fretboard
  • metronome
Autoscroll
slow
fast
+/-
esc
set tempo
stop
Contributor
Difficulty
Tuning
intermediate
D G D G B D
Sanctified Woman
Blackberry Smoke

standard pitch - Open G tuning

intro
d|-------------------------------------------------------|
B|--8-8-8-6-5--------8-8-8-6-5--------8-8-8-6-5----------|
G|--7-7-7-5-5-7-7-5--7-7-7-5-5-7-7-5--7-7-7-5-5-7-7-5----|
D|--5-5-5-5-5-7-7-5--5-5-5-5-5-7-7-5--5-5-5-5-5-7-7-5----|
G|------------7-7-5------------7-7-5------------7-7-5----|
D|-------------------------------------------------------|

d|-------------------|
B|--3-4-3-5-6-5-0----|
G|--3-3-3-5-5-5-0----|
D|--3-5-3-5-7-5-0----|
G|--3-3-3-5-5-5-0----|
D|-------------------|

pre-verse
d|-------------------------------------------|
B|-------0-0-------0-0-------0-0--7--5--3----|
G|-------0-0-------0-0-------0-0--7--5--3----|
D|-------0-0-------0-0-------0-0--7--5--3----|
G|-------0-0-------0-0-------0-0--7--5--3----|
D|-0-1-2-----0-1-2-----0-1-2-----------------|

verse
d|------------------------------------------|
B|-------0-0-------0-0-------0-0----7--0----|
G|-------0-0-------0-0-------0-0----7--0----|
D|-------0-0-------0-0-------0-0----7--0----|
G|-------0-0-------0-0-------0-0----7--0----|
D|-0-1-2-----0-1-2-----0-1-2----------------|

d|-------------------------------------------|
B|-------0-0-------0-0-------0-0--7--5--3----|
G|-------0-0-------0-0-------0-0--7--5--3----|
D|-------0-0-------0-0-------0-0--7--5--3----|
G|-------0-0-------0-0-------0-0--7--5--3----|
D|-0-1-2-----0-1-2-----0-1-2-----------------|

first chorus
d|-------------------------------------------------------|
B|--8-8-8-6-5--------8-8-8-6-5---------------------------|
G|--7-7-7-5-5-7-7-5--7-7-7-5-5-7-7-5--9-9-9-9-9-7-7-5----|
D|--5-5-5-5-5-7-7-5--5-5-5-5-5-7-7-5--9-9-9-9-9-7-7-5----|
G|------------7-7-5------------7-7-5--9-9-9-9-9-7-7-5----|
D|-------------------------------------------------------|

d|--------------------------------|
B|-------0-0-------0-0------0-----|
G|-------0-0-------0-0------0-----|
D|-------0-0-------0-0------0-----|
G|-------0-0-------0-0------0-----|
D|-0-1-2-----0-1-2-----0-1--------|

second chorus
d|-------------------------------------------------------|
B|--8-8-8-6-5--------8-8-8-6-5---------------------------|
G|--7-7-7-5-5-7-7-5--7-7-7-5-5-7-7-5--9-9-9-9-9-7-7-5----|
D|--5-5-5-5-5-7-7-5--5-5-5-5-5-7-7-5--9-9-9-9-9-7-7-5----|
G|------------7-7-5------------7-7-5--9-9-9-9-9-7-7-5----|
D|-------------------------------------------------------|

d|---------------------------------|
B|--3-4-3-5-6-5-0--3-4-3-5-6-5-----|
G|--3-3-3-5-5-5-0--3-3-3-5-5-5-----|
D|--3-5-3-5-7-5-0--3-5-3-5-7-5-----|
G|--3-3-3-5-5-5-0--3-3-3-5-5-5-----|
D|---------------------------------|

bridge
d|----------------------------------------|
B|--9-9-9-9--5-5-5-5--0-0-0-0--7-7-7-7----|
G|--9-9-9-9--5-5-5-5--0-0-0-0--7-7-7-7----|
D|--9-9-9-9--5-5-5-5--0-0-0-0--7-7-7-7----|
G|--9-9-9-9--5-5-5-5--0-0-0-0--7-7-7-7----|
D|----------------------------------------|

d|-------------------------------|
B|--9-9-9-9--5-5-5-5--7-7-7-7----|
G|--9-9-9-9--5-5-5-5--7-7-7-7----|
D|--9-9-9-9--5-5-5-5--7-7-7-7----|
G|--9-9-9-9--5-5-5-5--7-7-7-7----|
D|-------------------------------|

rhythm for solo
d|--------------------------------------------|
B|--------0-0-------0-0--0-0-0--7-7-5-5-------|
G|--------0-0-------0-0--0-0-0--7-7-5-5-------|
D|--------0-0-------0-0--0-0-0--7-7-5-5-------|
G|--------0-0-------0-0--0-0-0--7-7-5-5-------|
D|--0-1-2-----0-1-2---------------------------|

d|--------------------------------------------|
B|--9-9-9-9-7-7-7-5--------0-0--7-5-3-0-------|
G|--9-9-9-9-7-7-7-5--------0-0--7-5-3-0-------|
D|--9-9-9-9-7-7-7-5--------0-0--7-5-3-0-------|
G|--9-9-9-9-7-7-7-5--------0-0--7-5-3-0-------|
D|-------------------0-1-2--------------------|

final part of the outro
d|--------12------/12-------|
B|--3-4-3/12--0---/12-------|
G|--3-3-3/12--0---/12-------|
D|--3-5-3/12--0---/12-------|
G|--3-3-3/----0-------------|
D|--------------------------|


*sweet_inc*
comments
print report bad tab
2 comments total.
0 reply
shotrod531 wrote on October 11 2010, 05:29 pm

Perfect! well for the rythm anyways.. but this is the best tab ive ever seeen for this song not to mention one of the only ones.

+1 reply
camaross427 wrote on January 27 2011, 09:14 pm

Great job!

You wouldn't happen to know how to play "shake your magnolia" or "bottom of this" or "like i am" would you?

I want to post or [tab]
guest
You may want to rate the tab now too:
select rating
Please do not post tabs as comments. Select "correction" instead!