Oops, an error
Loading. Please wait.

Waiting On The Thunder Tab

1,564 views 117 this week
no commentswrite comment
1 2 3 4 5
x 9
add to favorites
launch autoscroll
font size
0
reset
how to read this tab
guitar tuner
Autoscroll
slow
fast
+/-
esc
set tempo
stop
Help us to improve Ultimate-Guitar.com Take our survey!
×
Author
[Intro]
e|---------------------------------------------------------------------------|
B|---------------------------------------------------------------------------|
G|-4---4-4-4----4---4-4-4----4---4-4-4----4---4-4-4-4------------------------|
D|-4---4-4-4----4---4-4-4----4---4-4-4----4---4-4-4-4-----2-0----------------|
A|-0h2-2-0-2----0h2-2-0-2----0h2-2-0-2----0h2-2-0-2-0---------2--------------|
E|----------------------------------------------------0-3-------3-0----------|

e|---------------------------------------------------------------------------|
B|---------------------------------------------------------------------------|
G|-4---4-4-4----4---4-4-4----4---4-4-4----4---4-4-4-4----------------4-------|
D|-4---4-4-4----4---4-4-4----4---4-4-4----4---4-4-4-4-----2-0--------4-------|
A|-0h2-2-0-2----0h2-2-0-2----0h2-2-0-2----0h2-2-0-2-0---------2------2-------|
E|----------------------------------------------------0-3-------3-0----------|

[Verse]
e|------------|------------|------------|------------------------------------|
B|------------|-3---3------|------------|------------------------------------|
G|-2---2---4--|-2-2-2-2-4--|-2---2---4--|------------------------------------|
D|-2-2-2-2-4--|-0-2-0-2-4--|-2-2-2-2-4--|------------------------------------|
A|-0-2-0-2-2--|---0---0-2--|-0-2-0-2-2--|-2p0-2h4----------------------------|
E|---0---0----|------------|---0---0----|------------------------------------|

[Chorus]
e|-----------------------------------------------------------------------------------|
B|-3-------3-------------3-------3------------3-------3------------3------3----------|
G|-2-2-----2-2---4-4-----2-2-----2-2---4-4----2-2-----2-2---4-4----2-2----2-2--------|
D|-0-2-----0-2-2-4-4-----0-2-----0-2-2-4-4----0-2-----0-2-2-4-4----0-2----0-2-2-4-4--|
A|---0-------0-2-2-2-------0-------0-2-2-2------0-------0-2-2-2------0------0-2-4-4--|
E|-------------0---------------------0--------------------0-------------------0-2-2--|

INTRO AGAIN
e|---------------------------------------------------------------------------|
B|---------------------------------------------------------------------------|
G|-4---4-4-4----4---4-4-4----4---4-4-4----4---4-4-4-4------------------------|
D|-4---4-4-4----4---4-4-4----4---4-4-4----4---4-4-4-4-----2-0----------------|
A|-0h2-2-0-2----0h2-2-0-2----0h2-2-0-2----0h2-2-0-2-0---------2--------------|
E|----------------------------------------------------0-3-------3-0----------|

e|---------------------------------------------------------------------------|
B|---------------------------------------------------------------------------|
G|-4---4-4-4----4---4-4-4----4---4-4-4----4---4-4-4-4----------------4-------|
D|-4---4-4-4----4---4-4-4----4---4-4-4----4---4-4-4-4-----2-0--------4-------|
A|-0h2-2-0-2----0h2-2-0-2----0h2-2-0-2----0h2-2-0-2-0---------2------2-------|
E|----------------------------------------------------0-3-------3-0----------|

VERSE AGAIN
e|------------|------------|------------|------------------------------------|
B|------------|-3---3------|------------|------------------------------------|
G|-2---2---4--|-2-2-2-2-4--|-2---2---4--|------------------------------------|
D|-2-2-2-2-4--|-0-2-0-2-4--|-2-2-2-2-4--|------------------------------------|
A|-0-2-0-2-2--|---0---0-2--|-0-2-0-2-2--|-2p0-2h4----------------------------|
E|---0---0----|------------|---0---0----|------------------------------------|

CHORUS AGAIN (slight change on last chord)
e|-----------------------------------------------------------------------------------|
B|-3-------3-------------3-------3------------3-------3------------3------3----------|
G|-2-2-----2-2---4-4-----2-2-----2-2---4-4----2-2-----2-2---4-4----2-2----2-2---4-4--|
D|-0-2-----0-2-2-4-4-----0-2-----0-2-2-4-4----0-2-----0-2-2-4-4----0-2----0-2-2-4-4--|
A|---0-------0-2-2-2-------0-------0-2-2-2------0-------0-2-2-2------0------0-2-2-2--|
E|-------------0---------------------0--------------------0-------------------0------|

BRIDGE/RHYTHM FOR KEYBOARD SOLO
e|----------------------|----------------------------------------------------|
B|----------------------|----------------------------------------------------|
G|----------------------|---------------------4-2----------------------------|
D|---------4-----4-4----|---------4-----4-4---4-2----------------------------|
A|----------------------|---------------------2-0----------------------------|
E|-2p0-1/2---2-2-----2--|-2p0-1/2---2-2-----2--------------------------------|

THIS IS HOW IT GOES INTO THE GUITAR SOLO
e|----------------------|----------------------------------------------------|
B|----------------------|----------------------------------------------------|
G|----------------------|----------------------------------------------------|
D|---------4-----4-4----|---------4------------------------------------------|
A|----------------------|----------------------------------------------------|
E|-2p0-1/2---2-2-----2--|-2p0-1/2---2-2-0-2-4-5-6-7--------------------------|

GUITAR SOLO (RHYTHM PLAYS VERSE CHORDS)
e|---------------------------------------------------------------------------|
B|---------------------------------------------------------------------------|
G|---------------------------------------------------------------------------|
D|------------------------------7-7-7----------------------------------------|
A|------7b-7-5-7-5-7b-5-----7/9-------7\5-7br--------------------------------|
E|--5/7-----------------7-5--------------------------------------------------|

                                   hold bend
e|---------------------------------------------------------------------------|
B|---------------------------------10-10-10----------------------------------|
G|-----7---7h8---7h8-----------7---9b-9b-9b-9rp7-----------------------------|
D|---------------------9---7h9---9---------------9-7-9\7---------------------|
A|-7/9---9-----9-----9---9---------------------------------------------------|
E|---------------------------------------------------------------------------|

                                                          1.5 step bend (to A note)
e|-----------7---------------------------------------------------------------|
B|-----10------------------------------------10-12br-10----------------------|
G|-/11----11---11\9---7---7-9-9brp7-----9/11------------11b------------------|
D|----------------------9-----------9-7--------------------------------------|
A|---------------------------------------------------------------------------|
E|---------------------------------------------------------------------------|

            2 step bend and hold
e|---------------------------------------------------------------------------|
B|-----12-15b-15b-15b-15b-15r-12-----22b-22b-22b-----------------------------|
G|-/14---------------------------14------22b-22b-----------------------------|
D|---------------------------------------------------------------------------|
A|--------------------------------------------------------2p0-2h4------------|
E|---------------------------------------------------------------------------|

CHORUS
e|-----------------------------------------------------------------------------------|
B|-3-------3-------------3-------3------------3-------3------------3------3----------|
G|-2-2-----2-2---4-4-----2-2-----2-2---4-4----2-2-----2-2---4-4----2-2----2-2--------|
D|-0-2-----0-2-2-4-4-----0-2-----0-2-2-4-4----0-2-----0-2-2-4-4----0-2----0-2-2-4-4--|
A|---0-------0-2-2-2-------0-------0-2-2-2------0-------0-2-2-2------0------0-2-4-4--|
E|-------------0---------------------0--------------------0-------------------0-2-2--|

OUTRO
e|---------------------------------------------------------------------------|
B|---------------------------------------------------------------------------|
G|-4---4-4-4----4---4-4-4----4---4-4-4----4---4-4-4-4------------------------|
D|-4---4-4-4----4---4-4-4----4---4-4-4----4---4-4-4-4-----2-0----------------|
A|-0h2-2-0-2----0h2-2-0-2----0h2-2-0-2----0h2-2-0-2-0---------2--------------|
E|----------------------------------------------------0-3-------3-0----------|

e|---------------------------------------------------------------------------|
B|---------------------------------------------------------------------------|
G|-4---4-4-4----4---4-4-4----4---4-4-4----4---4-4-4-4------------------------|
D|-4---4-4-4----4---4-4-4----4---4-4-4----4---4-4-4-4-----2-0----------------|
A|-0h2-2-0-2----0h2-2-0-2----0h2-2-0-2----0h2-2-0-2-0---------2--------------|
E|----------------------------------------------------0-3-------3-0----------|

e|---------------------------------------------------------------------------|
B|---------------------------------------------------------------------------|
G|-4---4-4-4----4---4-4-4----4---4-4-4----4---4-4-4-4------------------------|
D|-4---4-4-4----4---4-4-4----4---4-4-4----4---4-4-4-4-----2-0----------------|
A|-0h2-2-0-2----0h2-2-0-2----0h2-2-0-2----0h2-2-0-2-0---------2--------------|
E|----------------------------------------------------0-3-------3-0----------|

e|---------------------------------------------------------------------------|
B|---------------------------------------------------------------------------|
G|-4---4-4-4----4---4-4-4----4---4-4-4----4---4-4-4-4------------------------|
D|-4---4-4-4----4---4-4-4----4---4-4-4----4---4-4-4-4-----2-0----------------|
A|-0h2-2-0-2----0h2-2-0-2----0h2-2-0-2----0h2-2-0-2-0---------2--------------|
E|----------------------------------------------------0-3-------3-0----------|

e|---------------------|
B|---------------------|
G|-4---4-4-4-----------|
D|-4---4-4-4-----------|
A|-0h2-2-0-2-----------|
E|---------------------|


Suggest correction
comments
print report bad tab
guest
You may want to rate the tab now too:
select rating
Wanna post a correction for this tab? Suggest correction