Oops, an error
Loading. Please wait.

Bare Ground Chords

22 views 3 this week
no commentswrite comment
1 2 3 4 5
3 more votes to show rating
add to favorites
launch autoscroll
font size
0
reset
transpose
0
reset
display chords
guitar tuner
Autoscroll
slow
fast
+/-
esc
set tempo
stop
Help us to improve Ultimate-Guitar.com Take our survey!
×
Author
Difficulty
novice
Strumming
115 bpm
1
&
2
&
3
&
4
&
Play
Is this strumming pattern correct? Yes No
[Intro]

Cm


[Verse]

           Cm             Ab
It was overcast most of the way.
                  Cm                 Ab
Clouds thick with rain that couldn’t pour.
Cm                               Ab
Something was building up in the water
Cm                               Ab
Something was building up in the rain.


[Piano Intermezzo]

e|-6-8-6---------|----8-6-------|-6-8-6-8-6-------|---8-6-------|
B|--------8-6----|---x----8-6---|-----------8-6---|-------8-6---|
G|------------5--|--x---------5-|---------------5-|-5---------5-|
D|---------------|-x------------|-----------------|-------------|
A|---------------|--------------|-----------------|-------------|
E|---------------|--------------|-----------------|-------------|


[Chorus]

Bb                   Ab               Bb                 Cm
We were only holding out for nothing, leaving it on bare ground
Bb                       Ab                Bb               Cm
When you’re only looking out for yourself, scarcely much is around


[Piano Intermezzo]

e|-6-8-6---------|----8-6-------|-6-8-6-8-6-------|---8-6-------|
B|--------8-6----|---x----8-6---|-----------8-6---|-------8-6---|
G|------------5--|--x---------5-|---------------5-|-5---------5-|
D|---------------|-x------------|-----------------|-------------|
A|---------------|--------------|-----------------|-------------|
E|---------------|--------------|-----------------|-------------|

                Cm               Ab
And it couldn’t last, more of the same.

         Cm                      Ab
Slashing up the walls in a canvas room
Cm                               Ab
Something was building up in the water
Cm                               Ab
Something was building up in the rain.
Cm                               Ab
Something was building up in the water

Cm                                  Ab
Sleeping is a simple gesture on the roof
Ab
That’s a half truth.


[Piano Intermezzo]

e|-6-8-6---------|----8-6-------|-6-8-6-8-6-------|---8-6-------|
B|--------8-6----|---x----8-6---|-----------8-6---|-------8-6---|
G|------------5--|--x---------5-|---------------5-|-5---------5-|
D|---------------|-x------------|-----------------|-------------|
A|---------------|--------------|-----------------|-------------|
E|---------------|--------------|-----------------|-------------|


[Chorus]

Bb                   Ab               Bb                 Cm
We were only holding out for nothing, leaving it on bare ground
Bb                       Ab                Bb               Cm
When you’re only looking out for yourself, scarcely much is around
Bb                   Ab               Bb                 Cm
We were only holding out for nothing, leaving it on bare ground
Bb                       Ab                Bb               Cm
When you’re only looking out for yourself, scarcely much is around


[Piano Intermezzo]

e|-6-8-6---------|----8-6-------|
B|--------8-6----|---x----8-6---|
G|-------------5-|--x---------5-|
D|---------------|-x------------|
A|---------------|--------------|
E|---------------|--------------|


~~~~~~~~~~~~~~~~~~~~~~~~~~~~~~~~~~~~~~~~~~~~~~~~~~~~~~~~~~~~~~~~~

x - dead note

Suggest correction
Give kudos to tab author, rate the tab!
1 2 3 4 5
comments
print report bad tab
guest
You may want to rate the tab now too:
select rating
Wanna post a correction for this tab? Suggest correction