Oops, an error
Loading. Please wait.

Epidemic chords

version 1
version 1

Whole song

Interactive

7,387 views 6 this week
no commentswrite comment
1 2 3 4 5
x 6
add to favorites
×
Save as Personal and add changes to this tab that will be seen only by you. Learn more ›
×
You can save this tab as Personal to edit and correct it or add notes. All changes will be seen only by you. Learn more »
launch autoscroll
font size
0
reset
transpose
0
reset
simplify chords
display chords
guitar tuner
edit
Autoscroll
slow
fast
+/-
esc
set tempo
stop
Author
Difficulty
Strumming
There is no strumming pattern for this song yet. and get +5 IQ
Epidemic - Blackfield
Tabbed by SlayerSYD


G5

VERSE 1
********
G5
Don't say everything's okay
G5
Don't tell me that it's just a phase
G5         C5        G5
It doesn't help me

VERSE 2
********
G5
All the stars are standing still
G5
The anger and the sleeping pills
G5             C5        G5
Are all that's left now

CHORUS
*******
Cm                Em
An epidemic in my heart
Dsus4/A  
  Takes hold and slowly poisons me
C
  Her will won't let me breath
Cm                                Em
  It comes in waves and bleeds me dry
Dsus4/A
  This love is slowly killing me
C                              G5
  For me, there's noone else


VERSE 3
********                         Heavy guitar notes
G5                               ******************* 
Jelousy just eats me up             G5      G5      G5                C5
G5                               e|----------------------------------|------------------|
Another's made the deepest cuts  B|----------------------------------|------------------| 
G5          C5       G5          G|----------------------------------|------------------|
My heart is popping              D|----------------------------------|------------------|
                                 A|-5--5----5--5---------------------|-3-3-3--3-3-3-3-3-|
                                 E|-3--3----3--3----3-3-3--3-3-3-3-3-|------------------|
VERSE 4
********                                 
G5
You say there must be an end
G5
But afterwards we'll still be friends
G5           C5    G5
It seemed so easy


CHORUS
*******
Cm                Em
An epidemic in my heart
Dsus4/A  
  Takes hold and slowly poisons me
C
  Her will won't let me breath
Cm                                Em
  It comes in waves and bleeds me dry
Dsus4/A
  This love is slowly killing me
C                              G5
  For me, there's noone else

02:49
Distorted Solo
***************
e|-------------------------------------------------------------------|
B|------------------------------------------------s------------------|
G|-4-4-4-4-4-4-4-4-4-4-4-4-4-4-4-4-4-4-4-4-4-4-4-4\5-5-5-5-5-5-5-5-5-|
D|-------------------------------------------------------------------|
A|-------------------------------------------------------------------|
E|-------------------------------------------------------------------|


e|-------------------------------------------------------------------------|
B|--s---------------------------------------------s-----------s------------|
G|-5\4-4-4-4-4-4-4-4-4-4-4-4-4-4-4-4-4-4-4-4-4-4-4\7-7-7-7-7-7\8-8-8-8-8-8-|
D|-------------------------------------------------------------------------|
A|-------------------------------------------------------------------------|
E|-------------------------------------------------------------------------|


e|-------------------------------------------------------------------|
B|--s---------------------------------------------s------------------|
G|-8\4-4-4-4-4-4-4-4-4-4-4-4-4-4-4-4-4-4-4-4-4-4-4\5-5-5-5-5-5-5-5-5-|
D|-------------------------------------------------------------------|
A|-------------------------------------------------------------------|
E|-------------------------------------------------------------------|


e|-------------------------------------------------------------------------|
B|--s---------------------------------------------s-----------s------------|
G|-5\4-4-4-4-4-4-4-4-4-4-4-4-4-4-4-4-4-4-4-4-4-4-4\7-7-7-7-7-7\8-8-8-8-8-8-|
D|-------------------------------------------------------------------------|
A|-------------------------------------------------------------------------|
E|-------------------------------------------------------------------------|

e|---------------------------------------------------------------------------|
B|--s--------------s--------------------------------------------s------------|
G|-8\10-10-10-10-10\12---12---12---12---11---11--11---11--11-9-9\7--7---7--7-|
D|---------------------------------------------------------------------------|
A|---------------------------------------------------------------------------|
E|---------------------------------------------------------------------------|

                                      03:31
e|---------------------------------------------------------------------------|
B|------h------------------------------h-----------h------------------h--p---|
G|-4-4-4-5-5-5-5-5-5-5-5--5--8--7--5--7-9--9--9-9-7-9-9-11-12-11-11-11-12-11-|
D|---------------------------------------------------------------------------|
A|---------------------------------------------------------------------------|
E|---------------------------------------------------------------------------|


e|------------------------------------|
B|------------h-----------------------|
G|-11-11-11-11-12-12--12-12-12-12--12-|
D|------------------------------------|
A|------------------------------------|
E|------------------------------------|

CHORUS
*******
Cm                Em
An epidemic in my heart
Dsus4/A  
  Takes hold and slowly poisons me
C
  Her will won't let me breath
Cm                                Em
  It comes in waves and bleeds me dry
Dsus4/A
  This love is slowly killing me
C                              G5
  For me, there's noone else


VERSE 5
********
G5
Don't say everything's okay
G5
Don't tell me that it's just a phase
G5         C5        G5
It doesn't help me


A really nice song by blackfield, from the new album..
email me for comments/stuff - slayersyd@gmail.com
Suggest correction
Creating personal tab
Creating personal tab
You can edit any tab online and save it as your Personal.

You can edit, replace or remove any tab part or add personal notes – all changes will be seen only by you.

Personal tabs can be accessed anytime from any device, even offline.
Learn more »
comments
print report bad tab
guest
You may want to rate the tab now too:
select rating
Wanna post a correction for this tab? Suggest correction