Oops, an error
Loading. Please wait.

Lately chords

52 views 9 this week
no commentswrite comment
1 2 3 4 5
3 more votes to show rating
add to favorites
×
Save as Personal and add changes to this tab that will be seen only by you. Learn more ›
×
You can save this tab as Personal to edit and correct it or add notes. All changes will be seen only by you. Learn more »
launch autoscroll
font size
0
reset
transpose
0
reset
simplify chords
display chords
guitar tuner
edit
Autoscroll
slow
fast
+/-
esc
set tempo
stop
Strumming
There is no strumming pattern for this song yet. and get +5 IQ
[Intro]
e|---------------------------------------------------------------|
B|------11----11----11----11----11----11----11----11-------------|
G|---10----10----10----10----10----10----10----10----------------|
D|---------------------------------------------------------------|
A|---------------------------------------------------------------|
E|---------------------------------------------------------------|

(Repeat as often as needed, this also plays in the background during the verses)

Lately, there is no one on your side
It's a shame it's a shame you lost your magic touch

[Verse 1]
A#5                             F#5                G#5
     You feel unhappy, there are shadows more than light
                D#5
You can't think right
                               A#5
You're losing fights and taking one step back

(Basically, the guitar only plays this power chords)

[Chorus 1]
    D           
You're losing grip and bleeding now
     F
All your high hopes fall apart
     G#
And you're the one to blame
     D
You try to make it through the night
    F
But the creatures crawl and get you down
  G
There's no getaway

(Again, I think the guitar only plays power chords here, but it should also sound fine with the major chords,
as long as you don't use too much distortion for that)

[Solo]
e|---------------------------|------------------------------------|
B|--8-8-8-7-----8--8-8-7-----|--10-10-10-8------10-10-10-8--------|
G|----------7------------7---|------------------------------------|
D|---------------------------|-------------10---------------10----|
A|---------------------------|------------------------------------|
E|---------------------------|------------------------------------|

e|---------------------------|
B|--10h13-13-13--------------|
G|---------------------------|
D|--------------13--13-------|
A|---------------------------|
E|---------------------------|

(Play this twice)

[Verse 2]
A#5                  F#5               G#5
     Lately, you're dancing with your lies
        D#5                              A#5
No one cares, no one dares to stare you in the eyes
A#5                             F#5                 G#5
     You're thinking maybe it's just a phase you'll pass
          D#5                                 A#5
As you're standing in this empty hole you call a life

[Chorus 2]
    D           
You're losing grip and bleeding now
     F
All your high hopes fall apart
     G#
And you're the one to blame
     D
You try to make it through the night
    F
But the creatures crawl and get you down
  G
There's no getaway

[Solo]
e|---------------------------|------------------------------------|
B|--8-8-8-7-----8--8-8-7-----|--10-10-10-8------10-10-10-8--------|
G|----------7------------7---|------------------------------------|
D|---------------------------|-------------10---------------10----|
A|---------------------------|------------------------------------|
E|---------------------------|------------------------------------|

e|---------------------------|
B|--10h13-13-13--------------|
G|---------------------------|
D|--------------13--13-------|
A|---------------------------|
E|---------------------------|

(Play this twice)

[Bridge]
A#              C     Am                 A#
   Everywhere I go,       all I find is shadows
A#              C     Am                  A#       D     F
   Everywhere I go,       all I find is shadows of me, of me

(Actually, the guitar arpeggiates these chords, you can just improvise here, it'll sound good)

[Solo]
e|---------------------------|------------------------------------|
B|--8-8-8-7-----8--8-8-7-----|--10-10-10-8------10-10-10-8--------|
G|----------7------------7---|------------------------------------|
D|---------------------------|-------------10---------------10----|
A|---------------------------|------------------------------------|
E|---------------------------|------------------------------------|

e|---------------------------|
B|--10h13-13-13--------------|
G|---------------------------|
D|--------------13--13-------|
A|---------------------------|
E|---------------------------|

(Play this twice)

[Chorus 3]
    D           
You're losing grip and bleeding now
     F
All your high hopes fall apart
     G#
And you're the one to blame
     D
You try to make it through the night
    F
But the creatures crawl and get you down
  G
There's no getaway

[Outro]
e|---------------------------|------------------------------------|
B|--8-8-8-7-----8--8-8-7-----|--10-10-10-8------10-10-10-8--------|
G|----------7------------7---|------------------------------------|
D|---------------------------|-------------10---------------10----|
A|---------------------------|------------------------------------|
E|---------------------------|------------------------------------|

e|---------------------------|
B|--10h13-13-13--------------|
G|---------------------------|
D|--------------13--13-------|
A|---------------------------|
E|---------------------------|

(Play this twice, then fade out)


********************************************

| h  hammer-on

********************************************

            
            
Suggest correction
Creating personal tab
Creating personal tab
You can edit any tab online and save it as your Personal.

You can edit, replace or remove any tab part or add personal notes – all changes will be seen only by you.

Personal tabs can be accessed anytime from any device, even offline.
Learn more »
Give kudos to tab author, rate the tab!
1 2 3 4 5
comments
print report bad tab
guest
You may want to rate the tab now too:
select rating
Wanna post a correction for this tab? Suggest correction