Oops, an error
Loading. Please wait.

Rising Of The Tide Tab

464 views 1 this week
no commentswrite comment
1 2 3 4 5
excellent!
x 4
add to favorites
launch autoscroll
font size
0
reset
how to read this tab
guitar tuner
Tab Pro tools
  • play this tab
  • loop segment
  • change instrument
  • show fretboard
  • metronome
Autoscroll
slow
fast
+/-
esc
set tempo
stop
Contributor
Difficulty
novice
                                          Artist - Blackfield
                                         *********************
                                       Song - Rising Of The Tide
                                      ***************************
                                       Album - Welcome To My DNA
                                      ***************************
                                          Tabbed By - Ayreon77
                                         **********************



VERSE 1
********
C#m         A      E
Any day can be the last day in your life
   B                           A
So make it an unforgettable time
C#m               A          E
Another sleepless night, and anxiety attacks
    B                           A    
The doctor said you need some rest

----------------------------------------------
CHORUS
*******
           B             F#m          E
But you're always on the run, tracing after a place to hide
         F#m                        G#
You were born to your mum's shaking hands
    B              F#m                  E
The wolves are out tonight, and they're looking for a fight
        F#m                 G#
As they run at the speed of light
                     A
It seems you're home again

PICKING THROUGH CHORUS
***********************
   B   F#m   E              F#m                 C#m         G# 
[--2----2---------7--------|----------2--------|-----------|----------]
[--4----2----9--------7----|------2-------2----|------4----|-----4----]
[--4----2----9--9---9---9--|----2---2---2---2--|----6---6--|---5---5--]
[--4----4----9-------------|--4----------------|--6--------|-6--------]
[--2----4----7-------------|-------------------|-----------|----------]
[-------2------------------|-------------------|-----------|----------]X2

----------------------------------------------
SOLO 1 - A C#m A F#m
*******
 Guitar 1 - Picking
  A                  C#m                  A                  F#m
[-------------------|-------------------|-------------------|---2----------]
[----------5--------|----------5--------|----------5--------|----2---------]
[------5-------5----|------6-------6----|------5-------5----|-----2--------]
[----7---7---7---7--|----6---6---6---6--|----7---7---7---7--|------4-------]
[-------------------|--4----------------|-------------------|-------4------]
[--5----------------|-------------------|--5----------------|--------2-----]
|                                                                          |
|Guitar 2 - Solo                                                           |
[--------br------------------------------------br-------------|------------]
[--------9-------------------------------------9--------------|------------]
[-----9-----9-------------------------------9-----9-----------|-----h--p-s-]
[--11----------11-9-11-------------------11----------11-9-11--|----9-11-9\-]
[-------------------------------------------------------------|------------]
[-------------------------------------------------------------|------------]


----------------------------------------------
VERSE 2
********
C#m             A              E
Don't forget to breathe, while time is running out
       B                       A
On the clock tower, the window sky
C#m         A      E
Any day can be the last day in your life
   B                        A
So make it an unforgettable time

PICKING THROUGH VERSE 2
************************
  C#m         A           E                   B
[---------|---------|-----------------|-----------------|---------2------]
[-----4---|-----5---|---------7-------|---------2-------|-----2-------2--]
[---6---6-|---6---6-|-----9-------9---|-----4-------4---|---2---2---2---2]
[-6-------|-7-------|---9---9---9---9-|---4---4---4---4-|-4--------------]
[---------|---------|-7---------------|-2---------------|----------------]
[---------|---------|-----------------|-----------------|----------------]X2


----------------------------------------------
CHORUS
*******
B                   F#m           E
Around the blinking lights form a giant neon sign
         F#m                     G#
You were born in the wrong wrong year
     B                F#m            E
Your soul is freezing ice, but still they're asking for a slice
           F#m                G#
You had to feed those monster hearts
                 A
When you're home again

 Guitar 1 - Picking
   B   F#m   E              F#m                 C#m         G# 
[--2----2---------7--------|----------2--------|-----------|----------]
[--4----2----9--------7----|------2-------2----|------4----|-----4----]
[--4----2----9--9---9---9--|----2---2---2---2--|----6---6--|---5---5--]
[--4----4----9-------------|--4----------------|--6--------|-6--------]
[--2----4----7-------------|-------------------|-----------|----------]
[-------2------------------|-------------------|-----------|----------]X2
|                                                                     |
|Guitar 2 - Solo                                                      |
[---------br----------------------------------------------------------]
[---------9-----------------------------------------------------------]
[------------9--------------------------------------------------------]
[---------------9-----------------------------------------------------]
[---------------------------------------------------------------------]
[---------------------------------------------------------------------]X2


----------------------------------------------
SOLO 2 - A C#m A F#m
*******
 Guitar 1 - Picking
  A                  C#m                  A                  F#m
[-------------------|-------------------|-------------------|---2----------]
[----------5--------|----------5--------|----------5--------|----2---------]
[------5-------5----|------6-------6----|------5-------5----|-----2--------]
[----7---7---7---7--|----6---6---6---6--|----7---7---7---7--|------4-------]
[-------------------|--4----------------|-------------------|-------4------]
[--5----------------|-------------------|--5----------------|--------2-----]
|                                                                          |
|Guitar 2 - Solo                                                           |
[--------br------------------------------------br-------------|------------]
[--------9-------------------------------------9--------------|------------]
[-----9-----9-------------------------------9-----9-----------|-----h--p-s-]
[--11----------11-9-11-------------------11----------11-9-11--|----9-11-9\-]
[-------------------------------------------------------------|------------]
[-------------------------------------------------------------|------------]


----------------------------------------------
CHORUS
*******
B                F#m                   E
You feel you had enough, it's like the rising of the tide
         F#m                 G#
You're a shadow just passing by
    B              F#m                 E    
The wolves are out tonight and they're looking for a fight
         F#m                 G#
And they run at the speed of light
                     A
It seems you're home again

Guitar 1 - Picking

   B   F#m   E              F#m                 C#m         G# 
[--2----2---------7--------|----------2--------|-----------|----------]
[--4----2----9--------7----|------2-------2----|------4----|-----4----]
[--4----2----9--9---9---9--|----2---2---2---2--|----6---6--|---5---5--]
[--4----4----9-------------|--4----------------|--6--------|-6--------]
[--2----4----7-------------|-------------------|-----------|----------]
[-------2------------------|-------------------|-----------|----------]X2
|                                                                     |
|Guitar 2 - Solo                                                      |
[---------br----------------------------------------------------------]
[---------9-----------------------------------------------------------]
[------------9--------------------------------------------------------]
[---------------9-----------------------------------------------------]
[---------------------------------------------------------------------]
[---------------------------------------------------------------------]X2


----------------------------------------------
SOLO 3 - C#m F#m E F#m C#m - X4 finish on C#m
*******
[--9-7-9-------|--------------s---|------------------|---------------]
[--------9-10--|--12-10-12-7-7\9--|--10-9-10----s----|---------------]
[--------------|------------------|----------9-9\11--|--9-8----------]
[--------------|------------------|------------------|------11-9-11--]
[--------------|------------------|------------------|---------------]
[--------------|------------------|------------------|---------------]X4



A cool tune. Enjoy..........
comments
print report bad tab
I want to post or [tab]
guest
You may want to rate the tab now too:
select rating
Please do not post tabs as comments. Select "correction" instead!