Oops, an error
Loading. Please wait.

Rising Of The Tide Tab

version 2
version 2

Whole song

  • First tab from me for the full song including all ... Show more
10 views 1 this week
no commentswrite comment
1 2 3 4 5
3 more votes to show rating
add to favorites
launch autoscroll
font size
0
reset
how to read this tab
guitar tuner
Autoscroll
slow
fast
+/-
esc
set tempo
stop
Help us to improve Ultimate-Guitar.com Take our survey!
×
Author
Difficulty
intermediate
About this tab version
First tab from me for the full song including all guitar bits. The chords vary a bit throughout the song, so for example a F#m could transform to a F#m7 etc. - listen to the song to be really accurate :-). Was this info helpful? Yes No
Blackfield - Rising of the Tide
-------------------------------


Small fill-in at *:
    (B)      E
E|---------------|
B|--9b10r9-------|
G|---------9-----|
D|-----------9~--|
A|---------------|
E|---------------|


[Verse 1]
C#m                E       
Any day can be the last day in your life
   B                        Bm7
So make it an unforgettable time
C#m                          E
Another sleepless night, and anxiety attacks
   B                        Bm7 
The doctor said you need some rest


[Chorus 1]
           B                          E 
But you're always on the run, tracing after a place to hide
           F#m                      G#    G#7
You were born to your mum's shaking hands
    B                                 E
The wolves are out tonight, and they're looking for a fight
        F#m                 G#    G#7
As they run at the speed of light
                      A
It seems you're home again


[Bridge]
    (A)                  C#m     A                    F#m
E|----------------------------|---------------------------------------|
B|-------9b10r9---------------|-------9b10r9--------------------------|
G|-----9--------9-------------|-----9--------9------------------------|
D|--11------------11-9-9h11~--|--11------------11-9-9h11~--9h11p9-7~--|
A|----------------------------|---------------------------------------|
E|----------------------------|---------------------------------------|


[Verse 2]
C#m                            E
Don't forget to breathe, while time is running out
       B                       Bm7
On the clock tower, the window sky
C#m                E
Any day can be the last day in your life
   B                        Bm7
So make it an unforgettable time


[Chorus 2]
 B                       *       E
Around me blinking lights form a giant neon sign
         F#m                     G#   G#7
You were born in the wrong wrong year
     B                    *                  E
Your soul is freezing ice, but still they're asking for a slice
           F#m                G#     G#7
You had to feed those monster hearts
                  A
When you're home again


[Bridge]
    (A)                  C#m     A                    F#m
E|----------------------------|---------------------------------------|
B|-------9b10r9---------------|-------9b10r9--------------------------|
G|-----9--------9-------------|-----9--------9------------------------|
D|--11------------11-9-9h11~--|--11------------11-9-9h11~--9h11p9-7~--|
A|----------------------------|---------------------------------------|
E|----------------------------|---------------------------------------|


[Chorus 3]
    B                   *              E
You feel you had enough, it's like the rising of the tide
         F#m                 G# G#7
You're a shadow just passing by
    B                     *            E
The wolves are out tonight and they're looking for a fight
         F#m                 G#    G#7
And they run at the speed of light
                      C#m
It seems you're home again


[Ending]
    (C#m)       F#m     B7          E       A         F#m7      G#7  C#m
E|------------------------------------------------------------------------|
B|--14-12-14------------12-10-12------------10-9-10-----------------------|
G|-----------13-13/14~-----------11-11/13~----------9-9/11~-9-8-----------|
D|--------------------------------------------------------------11-9-11~--| x4
A|------------------------------------------------------------------------|
E|------------------------------------------------------------------------|


----------------
| h - Hammer-On
| p - Pull-Off
| ~ - Vibrato
| / - Slide up
| b - Bend
| r - Release
----------------
Suggest correction
Give kudos to tab author, rate the tab!
1 2 3 4 5
comments
print report bad tab
guest
You may want to rate the tab now too:
select rating
Wanna post a correction for this tab? Suggest correction