Oops, an error
Loading. Please wait.

Some Day tab

version 1
version 1

Whole song

Interactive

6,600 views 6 this week
1 commentread comment
1 2 3 4 5
x 5
add to favorites
×
Save as Personal and add changes to this tab that will be seen only by you. Learn more ›
×
You can save this tab as Personal to edit and correct it or add notes. All changes will be seen only by you. Learn more »
launch autoscroll
font size
0
reset
how to read this tab
guitar tuner
edit
Autoscroll
slow
fast
+/-
esc
set tempo
stop
Author
Difficulty
Unregistered
-------------------------------------------------------------------------------
                             Some Day - Blackfield
-------------------------------------------------------------------------------
Tabbed by: Roie Levy
Email: roietrip@walla.co.il

Tuning: standart

verse:

e|-------3-----------------3-------------------3------------------3----------|
B|-----3---3-------------3---3---------------2---2--------------1---1--------|
G|---3-------3---X4----2-------2---X4------3-------3---X4-----2-------2---X4-|
D|-5----------5------3-----------3-------2----------2-------1-----------1----|
A|---------------------------------------------------------------------------|
E|---------------------------------------------------------------------------|


chorus:

Gm   Dm
Some day
F               Eb              Gm    Dm*
You will find a better place to stay
F                    Eb            Gm
You'll never need to feel this way again
Dm*    F     Eb
Again, again

Dm*=x57765

            
            
Suggest correction
Creating personal tab
Creating personal tab
You can edit any tab online and save it as your Personal.

You can edit, replace or remove any tab part or add personal notes – all changes will be seen only by you.

Personal tabs can be accessed anytime from any device, even offline.
Learn more »
comments
print report bad tab
1 comment total.
0 reply
YourMessiah666 577 Oct 28, 2007 08:56 AM

spot on man. spot on. now we just gotta get the solo lol

guest
Wanna post a correction for this tab? Suggest correction