Oops, an error
Loading. Please wait.

This Killer tab

version 2
version 2

Whole song

3,229 views 3 this week
1 commentread comment
1 2 3 4 5
x 3
add to favorites
×
Save as Personal and add changes to this tab that will be seen only by you. Learn more ›
×
You can save this tab as Personal to edit and correct it or add notes. All changes will be seen only by you. Learn more »
launch autoscroll
font size
0
reset
how to read this tab
guitar tuner
edit
Autoscroll
slow
fast
+/-
esc
set tempo
stop
                                  Blackfield
                                 This  Killer

Tuning: EADGBe


Intro/Verse:

|----------0---------------0-------|----------0--------------0-------|
|------7------7-7------7-----7-----|------7------7-7-----7-----7-----|
|--------6---------------6-----6---|--------6--------------6-----6---|
|--0-------------------------------|--0------------------------------|
|----------------------------------|---------------------------------|
|----------------------------------|---------------------------------|

|----------0---------------0-------|----------0--------------0-------|
|------7------7-7------7-----7-----|------7------7-7-----7-----7-----|
|--------6---------------6-----6---|--------6--------------6-----6---|
|----------------------------------|---------------------------------|
|----------------------------------|---------------------------------|
|--7-------------------------------|--7------------------------------|

Chorus:

This killer on the run...           (F#m)
|----------2-------2-------2------------|
|------2-------2-------2-------2--------|
|----2-----------2-------2-------2------|
|--4-----4---4-------4-------4----------|
|---------------------------------------|
|---------------------------------------|


He steals from me the sun...        (C#m)
|--4-------4-------4-------4------------|
|------5-------5-------5-------5--------|
|---------------------------------------|
|--------6-------6-------6-------5------|
|----4-------4-------4-------4----------|
|---------------------------------------|


He'll catch me off my guard...        (E)
|---------------------------------------|
|--9-------9-------9-------9------------|
|------9-------9-------9-------9--------|
|--------9-------9-------9-------9------|
|---------------------------------------|
|----0-------0-------0-------0----------|


He likes me when I'm down and when I'm... (B)
|---------------------------------------|
|--7------------------------------------|
|----------8-------8-------8------------|
|------9-------9-------9-------9--------|
|----9---9---9---9---9---9---9---9------|
|---------------------------------------|


sad... Falling man...           (G and A7)
|----------0------------------0----------|
|------7-------7----------7-------7------|
|----6---6---6---6------6---6---6---6----|
|--5-------------------------------------|   x4
|---------------------0------------------|
|----------------------------------------|

Solo:
|---------------------------------|---------------------/9-10-9--------|--9-9---------|
|----------10-10h12--------10-----|----------10-10h12------------------|--------------|
|-----9-11----------9-9h11----11--|-----9-11----------9---------11-11--|------9-9/11--|
|--11-----------------------------|--11--------------------------------|--------------|
|---------------------------------|------------------------------------|--------------|
|---------------------------------|------------------------------------|--------------|


|-----------------------|---------------------|---------|
|-----------------------|---------------------|---------|
|----6-7-9-6------------|----6-7-9-6----------|----7----|
|--7---------7-9--------|--7---------7-9------|--9---7--|
|----------------7-7h9--|----------------9-9--|---------|
|-----------------------|---------------------|---------|

Chords underneath the solo are the same as the intro/verse.

Chords for the chorus:

F#m
This killer on the run

C#m
He steals from me the sun

E
He'll catch me off my guard

B                                       G
He likes me when I'm down and when I'm sad

        A7     G     A7    G
Falling man

        A7
Falling man

Chords used:
F#m: 244222
C#m: 446654
E:   022100
B:   224442
G:   355433
A7:  575655


------------------------------


Marcelo Crispim
São Paulo - Brazil
Suggest correction
Creating personal tab
Creating personal tab
You can edit any tab online and save it as your Personal.

You can edit, replace or remove any tab part or add personal notes – all changes will be seen only by you.

Personal tabs can be accessed anytime from any device, even offline.
Learn more »
Give kudos to tab author, rate the tab!
1 2 3 4 5
comments
print report bad tab
1 comment total.
0 reply
Alireza_96 21 Aug 15, 2016 01:30 PM

He steals from me the "soul" not Sun !

good job not great

guest
You may want to rate the tab now too:
select rating
Wanna post a correction for this tab? Suggest correction