Oops, an error
Loading. Please wait.

I Sure Can Smell The Rain Tab

1,658 views 1 this week
no commentswrite comment
1 2 3 4 5
please rate
add to favorites
launch autoscroll
font size
0
reset
how to read this tab
guitar tuner
Tab Pro tools
  • play this tab
  • loop segment
  • change instrument
  • show fretboard
  • metronome
×
Best way to learn
"I Sure Can Smell The Rain"
Autoscroll
slow
fast
+/-
esc
set tempo
stop
Contributor
Capo
2nd fret
I Sure Can Smell The Rain
Blackhawk
CD:Blackhawk
Track 4

Tabbed by Neil Crane

Capo 2nd fret

chords respective to capo
 Asus A7 A4 A  C9 D  G Bm
------------0--3--0--3--2-|
-3----2--0--2--3--3--3--3-|
-0----0--0--2--0--2--0--4-|
-2----2--2--2--x--0--0--4-|
-0----0--0--0--3-----x--2-|
---------------------3----|

basic rythm played over all D*
-0--0-0-0--0-0-----0-0-----0-0-|
-3--3-3-3--3-3-----3-3-----3-3-|
-2--2-2-2--2-2-----2-2-----2-2-|
-0--0-0-0--0-0-----0-0-----0-0-|
---------------2h4-----0h2-----|
-------------------------------|

all lead with respective to capo and played with a slide
fill 1
------|
-3/10-|
------|
------|
------|
------|

fill 2
------------|
-3/10--10\3-|
------------|
------------|
------------|
------------|

fill 3
----------|
-7/8\7----|
-------7--|
----------|
----------|
----------|

fill 4
---------------------------|
-7/8\7/8\7----7/8\7/8\7/10-|
-----------7\--------------|
---------------------------|
---------------------------|
---------------------------|

fill 5
-------------------|
-------------------|
-6/7\6/7\6---------|
-----------7/11/14-|
-------------------|
-------------------|
***********************

intro
D* D*  (with fill 1)

    D                               G                          D*     D* 
She hasn't done a thing that really has to mean she's going anywhere
  D                              G                            Asus A7 A4 A7
I haven't seen it showing in her eyes but I swear it must be there
  D                           G                              D*    D*
I don't know why I feel it so strong, but I feel it just the same
        C9                              A                             D*  D* (with fill 2)
I can't see a single storm cloud in the sky, but I sure can smell the rain

D                               G                       D*    D* 
She'd still say I love you if I ask, but she never volunteers
D                                 G                               Asus A7 A4 A7
Somehow what she never says means more than all the other words I hear
      D                                G                                   D*     D*
Still she should win an Oscar if she's lying, when she says that nothing's changed
        C9                              A                             D*  D* (with fill 3)
I can't see a single storm cloud in the sky, but I sure can smell the rain

Bm                         G                                     D*   D*  (with fill 4)
Everyday I brace myself to hear the words I'm scared she's gonna say
    Bm                               G                                   Asus A7 A4 A7(with fill 5)
And everynight I thank the Lord, somehow I've dodged the bullet one more day

D                                     G                             D*   D*
Sometimes there are things a man just knows, that he really can't explain
        C9                              A                               D*  D*
I can't see a single storm cloud in the sky, but I sure can smell the rain
        C9                              A                             D*(begin solo)
I can't see a single storm cloud in the sky, but I sure can smell the rain

 D* (repeat behind solo until fade out)
-------------------------------------12/14-14\10-10--5\2--------|
----/10-8\7/8\7---10\-----8\7/8\7/10---------------------/7-----|
-7\-------------7-----/7------------------------------------7\2-|
----------------------------------------------------------------|
----------------------------------------------------------------|
----------------------------------------------------------------|


comments
We did not receive enough feedback on this tab! Please rate:
print report bad tab
1 2 3 4 5
I want to post or [tab]
guest
You may want to rate the tab now too:
select rating
Please do not post tabs as comments. Select "correction" instead!