Oops, an error
Loading. Please wait.

Planes Tab

73 views 1 this week
no commentswrite comment
1 2 3 4 5
please rate
add to favorites
launch autoscroll
font size
0
reset
how to read this tab
guitar tuner
Tab Pro tools
  • play this tab
  • loop segment
  • change instrument
  • show fretboard
  • metronome
×
Best way to learn
"Planes"
Autoscroll
slow
fast
+/-
esc
set tempo
stop
Difficulty
intermediate
This is a very good song and it was a little difficult to transcribe so here's the tab.

Guitar 1: Distortion Guitar (eBGDAE)
Guitar 2: Distortion Guitar (eBGDAE)
Guitar 3: Acoustic Guitar (eBGDAE)

Intro

Guitar 1          *Note: Strum very quickly!

e|-0-0-7-7-8-8-5-5-7-7-3-3-2-3-2-0------------------------------------------|
B|--------------------------------------------------------------------------|
G|--------------------------------------------------------------------------|
D|--------------------------------------------------------------------------|
A|--------------------------------------------------------------------------|
E|--------------------------------------------------------------------------|

Keep doing this for the whole intro!

Guitar 2  *Note: Guitar 2 joins at 0:06 and must go exactly with Guitar 1.

e|--------------------------------------------------------------------------|
B|-0-0-7-7-8-8-5-5-7-7-3-3-2-3-2-0------------------------------------------|
G|--------------------------------------------------------------------------|
D|--------------------------------------------------------------------------|
A|--------------------------------------------------------------------------|
E|--------------------------------------------------------------------------|

Full band intro at 0:10

Guitar 1 and 2 keep on doing the same

Guitar 3

E|--------------------------------------------------------------------------|
B|--------------------------------------------------------------------------|
G|---5----------------4-----------------------------------------------------|
D|---5-x9-----3-------4-x9------4-------------------------------------------|
A|---3--------5-x9----2---------4-x9----------------------------------------|
E|------------5-----------------2-------------------------------------------|

Repeat this for the rest of the intro.

Guitar 1 and 2 make the following chords at 0:21.

E|-3--3-3--2--2-2-2--2-------------------------------------------------------|
B|-3--3-3--2--2-2-2--2-------------------------------------------------------|
G|-4--4-4--3--2-2-2--3-------------------------------------------------------|
D|-5--5-5--4--4-4-4--4-------------------------------------------------------|
A|-5--5-5--4--4-4-4--4-------------------------------------------------------|
E|-3--3-3--2--2-2-2--2-------------------------------------------------------|

After this you keep on with the fast intro.

At 0:26 Guitar 2 does the chords wile Guitar 1 keeps with the fast intro.

At 0:34 Guitar 1 and 2 make the chords.

Guitar 3 is now mute for the rest of the song.

Vocals start at 0:38 and Guitar 1 and 2 make this.

E|--------------------------------------------------------------------------|
B|--------------------------------------------------------------------------|
G|----------5-----------------4---------------------------------------------|
D|-4--------5-x10----5--------4-x10-----------------------------------------|
A|-4-x10----3--------5-x10----2---------------------------------------------|
E|-2-----------------3------------------------------------------------------|
  p.m               p.m

Keep doing this for the rest of the rest of the verse and all the verses.

Chorus

Guitar 1 and 2

E|--------------------------------------------------------------------------|
B|--------------------------------------------------------------------------|
G|-5------7------4----------------------------------------------------------|
D|-5-x10--7-x10--4-x10------------------------------------------------------|
A|-3------5------2----------------------------------------------------------|
E|--------------------------------------------------------------------------|

Do this for the rest of the chorus.

Solo (Guitar 1)  The solo starts at 1:31

E|--------------------------------------------------------------------------|
B|--------------------------------------------------------------------------|
G|--------------------------------------------------------------------------|
D|-17--16-14-9---7-9--17--16-14---------------------------------------------|
A|------------------------------15--17-19-17--14--12-9-7--------------------|
E|--------------------------------------------------------------------------|

Do this twice!

Guitar 2 plays verse over the solo.

Verse

Chorus

Interlude

On the interlude Guitar 1 and 2 play the verse on the interlude.

I'm not very sure of how the second solo is played. Well this is all the song hope it 
helps you! Peace out! http://www.myspace.com/blackheartafterglow
comments
We did not receive enough feedback on this tab! Please rate:
print report bad tab
1 2 3 4 5
I want to post or [tab]
guest
You may want to rate the tab now too:
select rating
Please do not post tabs as comments. Select "correction" instead!