Oops, an error
Loading. Please wait.

Worth Fighting For Tab

384 views 1 this week
1 commentread comment
1 2 3 4 5
2 more votes to show rating
add to favorites
launch autoscroll
font size
0
reset
how to read this tab
guitar tuner
×
Best way to learn
"Worth Fighting For"
Autoscroll
slow
fast
+/-
esc
set tempo
stop
Author
Difficulty
Tuning
  follow
intermediate
D A D G B E
-------------------------------------------------------------------------------
                             Worth Fighting For - Blacklist
-------------------------------------------------------------------------------
Tabbed by:Tyson Bloomfield
Email: tysonbloomfield@gmail.com

Tuning:DADGBE

This is the main riff played throughout the song, very catchy 
and awesome song! The spacing between chords is not the exact timing listen to the
song to get the idea of the strumming pattern. Drop D tuning.

e|---------------------------------------------------------------------------|
B|---------------------------------------------------------------------------|
G|---------------------------------------------------------------------------|
D|--5--5-5-5-5--7--7-7-7-7--10109-9-5-10109-9-5------------------------------|
A|--5--5-5-5-5--5--5-5-5-5--5-5-5-5-5-5-5-5-5-5------------------------------|
D|--5--5-5-5-5--5--5-5-5-5--5-5-5-5-5-5-5-5-5-5------------------------------|

e|---------------------------------------------------------------------------|
B|---------------------------------------------------------------------------|
G|---------------------------------------------------------------------------|
D|--12-12121212-11-11111111-14-14141414-1111121214---------------------------|
A|--9--9-9-9-9--9--9-9-9-9--9--9-9-9-9--9-9-9-9-9----------------------------|
D|--9--9-9-9-9--9--9-9-9-9--9--9-9-9-9--9-9-9-9-9----------------------------|



************************************
Suggest correction
Give kudos to tab author, rate the tab!
1 2 3 4 5
comments
print report bad tab
1 comment total.
0 reply
warlocklegend 31 Feb 03, 2013 07:29 PM

nice tab man and great song,but theres a bridge bit which goes

e|----------------------------------------------------------------------|
b|----------------------------------------------------------------------|
g|-9-9-9-9-9------------111111111---------------------------------------|
d|-7-7-7-7-7-9-9-9-9-9--9-9-9-9-9---------------------------------------|
a|-7-7-7-7-7-7-7-7-7-7--7-7-7-7-7---------------------------------------|
d|-5-5-5-5-5-5-5-5-5-5--7-7-7-7-7-7-7-7-7-7-----------------------------|

e|----------------------------------------------------------------------|
B|----------------------------------------------------------------------|
G|----------------------------------------------------------------------|
D|--12-12121212-11-11111111-14-14141414-1111121214----------------------|
A|--9--9-9-9-9--9--9-9-9-9--9--9-9-9-9--9-9-9-9-9-----------------------|
D|--9--9-9-9-9--9--9-9-9-9--9--9-9-9-9--9-9-9-9-9-----------------------|

guest
You may want to rate the tab now too:
select rating
Wanna post a correction for this tab? Suggest correction