Oops, an error
Loading. Please wait.

Everyone Safe tab

154 views 3 this week
1 commentread comment
1 2 3 4 5
3 more votes to show rating
add to favorites
×
Save as Personal and add changes to this tab that will be seen only by you. Learn more ›
×
You can save this tab as Personal to edit and correct it or add notes. All changes will be seen only by you. Learn more »
launch autoscroll
font size
0
reset
how to read this tab
guitar tuner
edit
Autoscroll
slow
fast
+/-
esc
set tempo
stop
Author
Difficulty
Interpret: Blackmail
Song: Everyone Safe
Album: Aerial View

Tuning: Standart E


                                                                      Want you back, won't  
e|-----------------|-----------------|-----------------|-----------------|-----------------|
H|-----------------|-----------------|-----------------|-----------------|-----------------|
G|-----------------|-----------------|-----------------|-----------------|-----------------|
D|-9-9-9-9-9---9---|-9-9-9-9-9---9---|-9-9-9-9-9---9---|-9-9-9-9-9---9---|-9-9-9-9-9---9---|
A|-9-9-9-9-9---9---|-9-9-9-9-9---9---|-9-9-9-9-9---9---|-9-9-9-9-9---9---|-9-9-9-9-9---9---|
E|-7-7-7-7-7---7---|-7-7-7-7-7---7---|-7-7-7-7-7---7---|-7-7-7-7-7---7---|-7-7-7-7-7---7---|

   you stop                                              You're never leaving, never leave 
e|-----------------|-----------------|-----------------|-----------------|-----------------|
H|-----------------|-----------------|-----------------|-----------------|-----------------|
G|-----------------|-----------------|-----------------|-----------------|-----------------|
D|-7-7-7-7-7---7---|-7-7-7-7-7---7---|-7-7-7-7-7---7---|-7-7-7-7-7---7---|-7-7-7-7-7---7---|
A|-7-7-7-7-7---7---|-7-7-7-7-7---7---|-7-7-7-7-7---7---|-7-7-7-7-7---7---|-7-7-7-7-7---7---|
E|-5-5-5-5-5---5---|-5-5-5-5-5---5---|-5-5-5-5-5---5---|-5-5-5-5-5---5---|-5-5-5-5-5---5---|

   that far                                              But now you've seen my cards
e|-----------------|-----------------|-----------------|-----------------|-----------------|
H|-----------------|-----------------|-----------------|-----------------|-----------------|
G|-----------------|-----------------|-----------------|-6-6-6-6-6---6---|-7-7-7-7-7---7---|
D|-5-5-5-5-5---5---|-5-5-5-5-5---5---|-5-5-5-5-5---5---|-6-6-6-6-6---6---|-7-7-7-7-7---7---|
A|-5-5-5-5-5---5---|-5-5-5-5-5---5---|-5-5-5-5-5---5---|-4-4-4-4-4---4---|-5-5-5-5-5---5---|
E|-3-3-3-3-3---3---|-3-3-3-3-3---3---|-3-3-3-3-3---3---|-----------------|-----------------|

                                                  Would you say that I'm wrong              
e|-----------------|-----------------|-----------------|-----------------|-----------------|
H|-----------------|-----------------|-----------------|-----------------|-------------0---|
G|-7-7-7-7-7---7---|-7-7-7-7-7---7---|-7-7-7-7-7-7-7-7-|-----------------|-------------0---|
D|-7-7-7-7-7---7---|-7-7-7-7-7---7---|-7-7-7-7-7-7-7-7-|-9-9-9-9-9---9---|-7-7-7-7-7---7---|
A|-5-5-5-5-5---5---|-5-5-5-5-5---5---|-5-5-5-5-4-4-4-4-|-9-9-9-9-9---9---|-7-7-7-7-7---X---|
E|-----------------|-----------------|-----------------|-7-7-7-7-7---7---|-5-5-5-5-5-------|

                                       I'm not impressend, I'm not the only one
e|-----------------|-----------------|-----------------|-----------------|-----------------|
H|-----------------|-----------------|-----------------|-----------------|-------------0---|
G|-----------------|-----------------|-----------------|-----------------|-------------0---|
D|-7-7-7-7-7---7---|-7-7-7-7-7---7---|-7-7-7-7-7---7---|-7-7-7-7-7---7---|-5-5-5-5-5---5---|
A|-7-7-7-7-7---7---|-7-7-7-7-7---7---|-7-7-7-7-7---7---|-7-7-7-7-7---7---|-5-5-5-5-5---X---|
E|-5-5-5-5-5---5---|-5-5-5-5-5---5---|-5-5-5-5-5---5---|-5-5-5-5-5---5---|-3-3-3-3-3-------|

                                       But I can't come along
e|-----------------|-----------------|-----------------|-----------------|-----------------|
H|-----------------|-----------------|-----------------|-----------------|-----------------|
G|-----------------|-----------------|-6-6-6-6-6---6---|-7-7-7-7-7---7---|-7-7-7-7-7---7---|
D|-5-5-5-5-5---5---|-5-5-5-5-5---5---|-6-6-6-6-6---6---|-7-7-7-7-7---7---|-7-7-7-7-7---7---|
A|-5-5-5-5-5---5---|-5-5-5-5-5---5---|-4-4-4-4-4---4---|-5-5-5-5-5---5---|-5-5-5-5-5---5---|
E|-3-3-3-3-3---3---|-3-3-3-3-3---3---|-----------------|-----------------|-----------------|

                                               Won't you please not come back         We'll 
e|-----------------|-----------------|-----------------|-----------------|-----------------|
H|-----------------|-----------------|-----------------|-----------------|-----------------|
G|-7-7-7-7-7-7-7-7-|-7-7-7-7-7-7-7-7-|-----------------|-----------------|-----------------|
D|-7-7-7-7-7-7-7-7-|-7-7-7-7-7-7-7-7-|-5-5-5-5-5-5-5-5-|-5-5-5-5-5-5-5-5-|-5-5-5-5-5-5-5-5-|
A|-5-5-5-5-5-5-5-5-|-5-5-5-5-4-4-4-4-|-5-5-5-5-5-5-5-5-|-5-5-5-5-5-5-5-5-|-5-5-5-5-5-5-5-5-|
E|-----------------|-----------------|-3-3-3-3-3-3-3-3-|-3-3-3-3-3-3-3-3-|-3-3-3-3-3-3-3-3-|

   never be apart    I don't complain about the mess     that you left inside my heart
e|-----------------|-----------------|-----------------|-----------------|-----------------|
H|-----------------|-----------------|-----------------|-----------------|-----------------|
G|---------7-7-7-7-|-9-9-9-9-9-9-9-9-|-9-9-9-9-9-9-9-9-|-9-9-9-9-9-9-9-9-|-9-9-9-9-11111111|
D|-5-5-5-5-7-7-7-7-|-9-9-9-9-9-9-9-9-|-9-9-9-9-9-9-9-9-|-9-9-9-9-9-9-9-9-|-9-9-9-9-11111111|
A|-5-5-5-5-5-5-5-5-|-7-7-7-7-7-7-7-7-|-7-7-7-7-7-7-7-7-|-7-7-7-7-7-7-7-7-|-7-7-7-7-9-9-9-9-|
E|-3-3-3-3---------|-----------------|-----------------|-----------------|-----------------|

   Won't you please not come back                      Don't tell it from the start  You're 
e|-----------------|-----------------|-----------------|-----------------|-----------------|
H|-----------------|-----------------|-----------------|-----------------|-----------------|
G|-----------------|-----------------|-----------------|---------7-7-7-7-|-9-9-9-9-9-9-9-9-|
D|-5-5-5-5-5-5-5-5-|-5-5-5-5-5-5-5-5-|-5-5-5-5-5-5-5-5-|-5-5-5-5-7-7-7-7-|-9-9-9-9-9-9-9-9-|
A|-5-5-5-5-5-5-5-5-|-5-5-5-5-5-5-5-5-|-5-5-5-5-5-5-5-5-|-5-5-5-5-5-5-5-5-|-7-7-7-7-7-7-7-7-|
E|-3-3-3-3-3-3-3-3-|-3-3-3-3-3-3-3-3-|-3-3-3-3-3-3-3-3-|-3-3-3-3---------|-----------------|

   never save in the dark        So I must be around     I've  never  seen  you  fall
e|-----------------|-----------------|-----------------|-----------------|-----------------|
H|-----------------|-----------------|-----------------|-----------------|-------------0---|
G|-9-9-9-9-9-9-9-9-|-9-9-9-9-9-9-9-9-|-7-7-----6-6-----|-----------------|-------------0---|
D|-9-9-9-9-9-9-9-9-|-9-9-9-9-9-9-9-9-|-7-7-----6-6-----|-9-9-9-9-9---9---|-7-7-7-7-7---7---|
A|-7-7-7-7-7-7-7-7-|-7-7-7-7-7-7-7-7-|-5-5-----4-4-----|-9-9-9-9-9---9---|-7-7-7-7-7---X---|
E|-----------------|-----------------|-----------------|-7-7-7-7-7---7---|-5-5-5-5-5-------|



                                       I've  always  tried  to  tumble  down  the  wall 
e|-----------------|-----------------|-----------------|-----------------|-----------------|
H|-----------------|-----------------|-----------------|-----------------|-------------0---|
G|-----------------|-----------------|-----------------|-----------------|-------------0---|
D|-7-7-7-7-7---7---|-7-7-7-7-7---7---|-7-7-7-7-7---7---|-7-7-7-7-7---7---|-5-5-5-5-5---5---|
A|-7-7-7-7-7---7---|-7-7-7-7-7---7---|-7-7-7-7-7---7---|-7-7-7-7-7---7---|-5-5-5-5-5---X---|
E|-5-5-5-5-5---5---|-5-5-5-5-5---5---|-5-5-5-5-5---5---|-5-5-5-5-5---5---|-3-3-3-3-3-------|

                                       You've built around us all 
e|-----------------|-----------------|-----------------|-----------------|-----------------|
H|-----------------|-----------------|-----------------|-----------------|-----------------|
G|-----------------|-----------------|-6-6-6-6-6---6---|-7-7-7-7-7---7---|-7-7-7-7-7---7---|
D|-5-5-5-5-5---5---|-5-5-5-5-5---5---|-6-6-6-6-6---6---|-7-7-7-7-7---7---|-7-7-7-7-7---7---|
A|-5-5-5-5-5---5---|-5-5-5-5-5---5---|-4-4-4-4-4---4---|-5-5-5-5-5---5---|-5-5-5-5-5---5---|
E|-3-3-3-3-3---3---|-3-3-3-3-3---3---|-----------------|-----------------|-----------------|

                                 Now  I've  tripped  to  your  head 
e|-----------------|-----------------|-----------------|-----------------|-----------------|
H|-----------------|-----------------|-----------------|-------------0---|-----------------|
G|-7-7-7-7-7---7---|-7-7-7-7-7-7-7-7-|-----------------|-------------0---|-----------------|
D|-7-7-7-7-7---7---|-7-7-7-7-7-7-7-7-|-9-9-9-9-9---9---|-7-7-7-7-7---7---|-7-7-7-7-7---7---|
A|-5-5-5-5-5---5---|-5-5-5-5-4-4-4-4-|-9-9-9-9-9---9---|-7-7-7-7-7---X---|-7-7-7-7-7---7---|
E|-----------------|-----------------|-7-7-7-7-7---7---|-5-5-5-5-5-------|-5-5-5-5-5---5---|
                     I could have lied but I know what it's like to be dead 
e|-----------------|-----------------|-----------------|-----------------|-----------------|
H|-----------------|-----------------|-----------------|-------------0---|-----------------|
G|-----------------|-----------------|-----------------|-------------0---|-----------------|
D|-7-7-7-7-7---7---|-7-7-7-7-7---7---|-7-7-7-7-7---7---|-5-5-5-5-5---5---|-5-5-5-5-5---5---|
A|-7-7-7-7-7---7---|-7-7-7-7-7---7---|-7-7-7-7-7---7---|-5-5-5-5-5---X---|-5-5-5-5-5---5---|
E|-5-5-5-5-5---5---|-5-5-5-5-5---5---|-5-5-5-5-5---5---|-3-3-3-3-3-------|-3-3-3-3-3---3---|

                     Though I'm still alive instead
e|-----------------|-----------------|-----------------|-----------------|-----------------|
H|-----------------|-----------------|-----------------|-----------------|-----------------|
G|-----------------|-6-6-6-6-6---6---|-7-7-7-7-7---7---|-7-7-7-7-7---7---|-7-7-7-7-7-7-7-7-|
D|-5-5-5-5-5---5---|-6-6-6-6-6---6---|-7-7-7-7-7---7---|-7-7-7-7-7---7---|-7-7-7-7-7-7-7-7-|
A|-5-5-5-5-5---5---|-4-4-4-4-4---4---|-5-5-5-5-5---5---|-5-5-5-5-5---5---|-5-5-5-5-5-5-5-5-|
E|-3-3-3-3-3---3---|-----------------|-----------------|-----------------|-----------------|

                             Won't you please not come back         We'll never be apart  
e|-----------------|-----------------|-----------------|-----------------|-----------------|
H|-----------------|-----------------|-----------------|-----------------|-----------------|
G|-7-7-7-7-7-7-7-7-|-----------------|-----------------|-----------------|---------7-7-7-7-|
D|-7-7-7-7-7-7-7-7-|-5-5-5-5-5-5-5-5-|-5-5-5-5-5-5-5-5-|-5-5-5-5-5-5-5-5-|-5-5-5-5-7-7-7-7-|
A|-5-5-5-5-4-4-4-4-|-5-5-5-5-5-5-5-5-|-5-5-5-5-5-5-5-5-|-5-5-5-5-5-5-5-5-|-5-5-5-5-5-5-5-5-|
E|-----------------|-3-3-3-3-3-3-3-3-|-3-3-3-3-3-3-3-3-|-3-3-3-3-3-3-3-3-|-3-3-3-3---------|

                                               
   I don't complain about the mess     that you left inside my heart       Won't you please
e|-----------------|-----------------|-----------------|-----------------|-----------------|
H|-----------------|-----------------|-----------------|-----------------|-----------------|
G|-9-9-9-9-9-9-9-9-|-9-9-9-9-9-9-9-9-|-9-9-9-9-9-9-9-9-|-9-9-9-9-11111111|-----------------|
D|-9-9-9-9-9-9-9-9-|-9-9-9-9-9-9-9-9-|-9-9-9-9-9-9-9-9-|-9-9-9-9-11111111|-5-5-5-5-5-5-5-5-|
A|-7-7-7-7-7-7-7-7-|-7-7-7-7-7-7-7-7-|-7-7-7-7-7-7-7-7-|-7-7-7-7-9-9-9-9-|-5-5-5-5-5-5-5-5-|
E|-----------------|-----------------|-----------------|-----------------|-3-3-3-3-3-3-3-3-|

   not come back                      Don't tell it from the start You're never save in the
e|-----------------|-----------------|-----------------|-----------------|-----------------|
H|-----------------|-----------------|-----------------|-----------------|-----------------|
G|-----------------|-----------------|---------7-7-7-7-|-9-9-9-9-9-9-9-9-|-9-9-9-9-9-9-9-9-|
D|-5-5-5-5-5-5-5-5-|-5-5-5-5-5-5-5-5-|-5-5-5-5-7-7-7-7-|-9-9-9-9-9-9-9-9-|-9-9-9-9-9-9-9-9-|
A|-5-5-5-5-5-5-5-5-|-5-5-5-5-5-5-5-5-|-5-5-5-5-5-5-5-5-|-7-7-7-7-7-7-7-7-|-7-7-7-7-7-7-7-7-|
E|-3-3-3-3-3-3-3-3-|-3-3-3-3-3-3-3-3-|-3-3-3-3---------|-----------------|-----------------|
 
   dark and I see    you're feeling    down                                       when you
e|-----------------|-----------------|-----------------|-----------------|-----------------|
H|-----------------|-----------------|-----------------|-----------------|-----------------|
G|-1111111111111111|-1111111111111111|-1212121212121212|-1212121211111111|-9-9-9-9-9-9-9-9-|
D|-1111111111111111|-1111111111111111|-1212121212121212|-1212121211111111|-9-9-9-9-9-9-9-9-|
A|-9-9-9-9-9-9-9-9-|-9-9-9-9-9-9-9-9-|-1010101010101010|-101010109-9-9-9-|-7-7-7-7-7-7-7-7-|
E|-----------------|-----------------|-----------------|-----------------|-----------------|

   hear this creepy  sound                                          so  I  have  to  be  a-
e|-----------------|-----------------|-----------------|-----------------|-----------------|
H|-----------------|-----------------|-----------------|-----------------|-----------------|
G|-1111111111111111|-1212121212121212|-1212121211111111|-9-9-9-9-9-9-9-9-|-1111111111111111|
D|-1111111111111111|-1212121212121212|-1212121211111111|-9-9-9-9-9-9-9-9-|-1111111111111111|
A|-9-9-9-9-9-9-9-9-|-1010101010101010|-101010109-9-9-9-|-7-7-7-7-7-7-7-7-|-9-9-9-9-9-9-9-9-|
E|-----------------|-----------------|-----------------|-----------------|-----------------|

   round
e|-----------------|-----------------|
H|-----------------|-----------------|
G|-----------------|-----------------|
D|-9-9-9-9-9---9---|-9-9-9-9-9---9---|
A|-9-9-9-9-9---9---|-9-9-9-9-9---9---|
E|-7-7-7-7-7---7---|-7-7-7-7-7---7---|



 | first guitar during solo: -->
e|------------------------------------------------------------------------------------------|
H|------------------------------------------------------------------------------------------|
G|-1/7-9-6-7-6-7-9-6-7-6-7-9-6-7-6-7-9b11-9-7-9b11-9-7-6-6b7r6-------6b7r6-------6b7r6------|
D|-------------------------------------------------------------8-7-8-------8-7-8-------8-7--|
A|------------------------------------------------------------------------------------------|
E|------------------------------------------------------------------------------------------|

e|------------------------------------------------------------------------------------------|
H|------------------------------------------------------------------------------------------|
G|------------------------------------------------------------------------------------------|
D|------------------------------------------------------------------------------------------|
A|------------------------------------------------------------------------------------------|
E|------------------------------------------------------------------------------------------|
                                          <-- solo ends|
e|-----------------------------------------------------|
H|-----------------------------------------------------|
G|-----------------------------------------------------|
D|-----------------------------------------------------|
A|-----------------------------------------------------|
E|-----------------------------------------------------|


 | second guitar during solo: -->
e|-----------------|-----------------|-----------------|-----------------|-----------------|
H|-----------------|-----------------|-----------------|-----------------|-----------------|
G|-----------------|-----------------|-----------------|-----------------|-----------------|
D|-9-9-9-9-9---9---|-7-7-7-7-7---7---|-7-7-7-7-7---7---|-7-7-7-7-7---7---|-7-7-7-7-7---7---|
A|-9-9-9-9-9---9---|-7-7-7-7-7---7---|-7-7-7-7-7---7---|-7-7-7-7-7---7---|-7-7-7-7-7---7---|
E|-7-7-7-7-7---7---|-5-5-5-5-5---5---|-5-5-5-5-5---5---|-5-5-5-5-5---5---|-5-5-5-5-5---5---|

e|-----------------|-----------------|-----------------|-----------------|-----------------|
H|-----------------|-----------------|-----------------|-----------------|-----------------|
G|-----------------|-----------------|-----------------|-6-6-6-6-6---6---|-7-7-7-7-7---7---|
D|-5-5-5-5-5---5---|-5-5-5-5-5---5---|-5-5-5-5-5---5---|-6-6-6-6-6---6---|-7-7-7-7-7---7---|
A|-5-5-5-5-5---5---|-5-5-5-5-5---5---|-5-5-5-5-5---5---|-4-4-4-4-4---4---|-5-5-5-5-5---5---|
E|-3-3-3-3-3---3---|-3-3-3-3-3---3---|-3-3-3-3-3---3---|-----------------|-----------------|

                                          <-- solo ends| 
e|-----------------|-----------------|-----------------|
H|-----------------|-----------------|-----------------|
G|-7-7-7-7-7---7---|-7-7-7-7-7-7-7-7-|-7-7-7-7-7-7-7-7-|
D|-7-7-7-7-7---7---|-7-7-7-7-7-7-7-7-|-7-7-7-7-7-7-7-7-|
A|-5-5-5-5-5---5---|-5-5-5-5-5-5-5-5-|-5-5-5-5-4-4-4-4-|
E|-----------------|-----------------|-----------------|


          Won't you  please not come   back               We'll never be   apart  I don't        
e|-----------------|-----------------|-----------------|-----------------|-----------------|
H|-----------------|-----------------|-----------------|-----------------|-----------------|
G|-----------------|-----------------|-----------------|---------7-7-7-7-|-9-9-9-9-9-9-9-9-|
D|-5-5-5-5-5-5-5-5-|-5-5-5-5-5-5-5-5-|-5-5-5-5-5-5-5-5-|-5-5-5-5-7-7-7-7-|-9-9-9-9-9-9-9-9-|
A|-5-5-5-5-5-5-5-5-|-5-5-5-5-5-5-5-5-|-5-5-5-5-5-5-5-5-|-5-5-5-5-5-5-5-5-|-7-7-7-7-7-7-7-7-|
E|-3-3-3-3-3-3-3-3-|-3-3-3-3-3-3-3-3-|-3-3-3-3-3-3-3-3-|-3-3-3-3---------|-----------------|

   complain about the mess     that you left inside my   heart       Won't you please not 
e|-----------------|-----------------|-----------------|-----------------|-----------------|
H|-----------------|-----------------|-----------------|-----------------|-----------------|
G|-9-9-9-9-9-9-9-9-|-9-9-9-9-9-9-9-9-|-9-9-9-9-11111111|-----------------|-----------------|
D|-9-9-9-9-9-9-9-9-|-9-9-9-9-9-9-9-9-|-9-9-9-9-11111111|-5-5-5-5-5-5-5-5-|-5-5-5-5-5-5-5-5-|
A|-7-7-7-7-7-7-7-7-|-7-7-7-7-7-7-7-7-|-7-7-7-7-9-9-9-9-|-5-5-5-5-5-5-5-5-|-5-5-5-5-5-5-5-5-|
E|-----------------|-----------------|-----------------|-3-3-3-3-3-3-3-3-|-3-3-3-3-3-3-3-3-|

   come back         Don't   tell it from the start    You're never save   in the  dark so   
e|-----------------|-----------------|-----------------|-----------------|-----------------|
H|-----------------|-----------------|-----------------|-----------------|-----------------|
G|-----------------|---------7-7-7-7-|-9-9-9-9-9-9-9-9-|-9-9-9-9-9-9-9-9-|-9-9-9-9-9-9-9-9-|
D|-5-5-5-5-5-5-5-5-|-5-5-5-5-7-7-7-7-|-9-9-9-9-9-9-9-9-|-9-9-9-9-9-9-9-9-|-9-9-9-9-9-9-9-9-|
A|-5-5-5-5-5-5-5-5-|-5-5-5-5-5-5-5-5-|-7-7-7-7-7-7-7-7-|-7-7-7-7-7-7-7-7-|-7-7-7-7-7-7-7-7-|
E|-3-3-3-3-3-3-3-3-|-3-3-3-3---------|-----------------|-----------------|-----------------|

   I have to be      around                                          I'll  always be around
e|-----------------|-----------------|-----------------|-----------------|-----------------|
H|-----------------|-----------------|-----------------|-----------------|-----------------|
G|-7-7-----6-6-----|-9-9-9-9-11111111|-1212121211111111|-9-9-9-9-11111111|-1212121211111111|
D|-7-7-----6-6-----|-9-9-9-9-11111111|-1212121211111111|-9-9-9-9-11111111|-1212121211111111|
A|-5-5-----4-4-----|-7-7-7-7-9-9-9-9-|-101010109-9-9-9-|-7-7-7-7-9-9-9-9-|-101010109-9-9-9-|
E|-----------------|-----------------|-----------------|-----------------|-----------------|


e|-----------------|-----------------|-----------------|-----------------|-----------------|
H|-----------------|-----------------|-----------------|-----------------|-----------------|
G|-9-9-9-9-11111111|-1212121211111111|-9-9-9-9-11111111|-1212121211111111|-9-9-9-9-11111111|
D|-9-9-9-9-11111111|-1212121211111111|-9-9-9-9-11111111|-1212121211111111|-9-9-9-9-11111111|
A|-7-7-7-7-9-9-9-9-|-101010109-9-9-9-|-7-7-7-7-9-9-9-9-|-101010109-9-9-9-|-7-7-7-7-9-9-9-9-|
E|-----------------|-----------------|-----------------|-----------------|-----------------|



                                 I'll  always be around
e|-----------------|-----------------|-----------------|-----------------|-----------------|
H|-----------------|-----------------|-----------------|-----------------|-----------------|
G|-1212121211111111|-9-9-9-9-11111111|-1212121211111111|-9-9-9-9-11111111|-1212121211111111|
D|-1212121211111111|-9-9-9-9-11111111|-1212121211111111|-9-9-9-9-11111111|-1212121211111111|
A|-101010109-9-9-9-|-7-7-7-7-9-9-9-9-|-101010109-9-9-9-|-7-7-7-7-9-9-9-9-|-101010109-9-9-9-|
E|-----------------|-----------------|-----------------|-----------------|-----------------|


e|-----------------|-----------------|-----------------|-----------------|-----------------|
H|-----------------|-----------------|-----------------|-----------------|-----------------|
G|-9-9-9-9-11111111|-1212121211111111|-5---------------|-----------------|-----------------|
D|-7-7-7-7-9-9-9-9-|-101010109-9-9-9-|-5---------------|-----------------|-----------------|
A|-7-7-7-7-9-9-9-9-|-101010109-9-9-9-|-3---------------|-----------------|-----------------|
E|-----------------|-----------------|-----------------|-----------------|-----------------|

            
            
Suggest correction
Creating personal tab
Creating personal tab
You can edit any tab online and save it as your Personal.

You can edit, replace or remove any tab part or add personal notes – all changes will be seen only by you.

Personal tabs can be accessed anytime from any device, even offline.
Learn more »
Give kudos to tab author, rate the tab!
1 2 3 4 5
comments
print report bad tab
1 comment total.
0 reply
rainybruce 52 Nov 13, 2012 01:13 AM

Mein erster Tab!!! :) Ich hoffe er gefällt... Das Solo hab ich nur mal ganz grob dargestellt. Aber generell lässt sich bei Blackmail sehr gut mit der Pentatonik drüber gehen. Mit ein bißchen Übung sollte man dann auch schnell dahin kommen, dass das Solo dem Original sehr ähnlich klingt. Also nehmt die Solobeschreibung nur als Ansatz und probiert vielleicht einfach mal über das gesamte Lied zu improvisieren. Da kommt schon einiges bei rum für's Solo... Viel Spaß!!!

guest
You may want to rate the tab now too:
select rating
Wanna post a correction for this tab? Suggest correction