Oops, an error
Loading. Please wait.

Never Forever tab

143 views 1 this week
1 commentread comment
1 2 3 4 5
3 more votes to show rating
add to favorites
×
Save as Personal and add changes to this tab that will be seen only by you. Learn more ›
×
You can save this tab as Personal to edit and correct it or add notes. All changes will be seen only by you. Learn more »
launch autoscroll
font size
0
reset
how to read this tab
guitar tuner
edit
Autoscroll
slow
fast
+/-
esc
set tempo
stop
Author
Difficulty
Interpret: Blackmail
Song: Never Forever
Album: Aerial View

Tuning: Standart E


                                                                                                  v 
e|-------------------------------------------------|----------------------------------------------10-|
H|-------------------------------------------------|----------------------------------------------11-|
G|-------------------------------------------------|----------------------------------------------12-|
D|-------------------------------------------------|----------------------------------------------12-|
A|-------------------------------------------------|----------------------------------------------10-|
E|-------------------------------------------------|-------------------------------------------------|

                     today      I      wasn’t     evil      for      what      I      have      be-
   ^  v  ^  v  ^  v  ^  v  ^  v  ^  v  ^  v  ^  v  | ^  v  ^  v  ^  v  ^  v  ^  v  ^  v  ^  v  ^  v 
e|-10-------10-10----10-10----10----10----10-10-10-|-8--------8--8-----8--8-----8-----8-----8--8--8--|
H|-11-------11-11----11-11----11----11----11-11-11-|-10-------10-10----10-10----10----10----10-10-10-|
G|-12-------12-12----12-12----12----12----12-12-12-|-10-------10-10----10-10----10----10----10-10-10-|
D|-12-------12-12----12-12----12----12----12-12-12-|-10-------10-10----10-10----10----10----10-10-10-|
A|-10-------10-10----10-10----10----10----10-10-10-|-8--------8--8-----8--8-----8-----8-----8--8--8--|
E|-------------------------------------------------|-------------------------------------------------|

   come                                                                i    laughed     until    the
   ^  v  ^  v  ^  v  ^  v  ^  v  ^  v  ^  v  ^  v  | ^  v  ^  v  ^  v  ^  v  ^  v  ^  v  ^  v  ^  v 
e|-8--------8--8-----8--8-----8-----8-----8--8--8--|-10-------10-10----10-10----10----10----10-10-10-|
H|-8--------8--8-----8--8-----8-----8-----8--8--8--|-11-------11-11----11-11----11----11----11-11-11-|
G|-9--------9--9-----9--9-----9-----9-----9--9--9--|-12-------12-12----12-12----12----12----12-12-12-|
D|-10-------10-10----10-10----10----10----10-10-10-|-12-------12-12----12-12----12----12----12-12-12-|
A|-10-------10-10----10-10----10----10----10-10-10-|-10-------10-10----10-10----10----10----10-10-10-|
E|-8--------8--8-----8--8-----8-----8-----8--8--8--|-------------------------------------------------|
 
   walls    fell     to     recognize     the        sun
   ^  v  ^  v  ^  v  ^  v  ^  v  ^  v  ^  v  ^  v  | ^  v  ^  v  ^  v  ^  v  ^  v  ^  v  ^  v  ^  v 
e|-8--------8--8-----8--8-----8-----8-----8--8--8--|-8--------8--8-----8--8-----8-----8-----8--8--8--|
H|-10-------10-10----10-10----10----10----10-10-10-|-8--------8--8-----8--8-----8-----8-----8--8--8--|
G|-10-------10-10----10-10----10----10----10-10-10-|-9--------9--9-----9--9-----9-----9-----9--9--9--|
D|-10-------10-10----10-10----10----10----10-10-10-|-10-------10-10----10-10----10----10----10-10-10-|
A|-8--------8--8-----8--8-----8-----8-----8--8--8--|-10-------10-10----10-10----10----10----10-10-10-|
E|-------------------------------------------------|-8--------8--8-----8--8-----8-----8-----8--8--8--|

                     you      say     I’m      unforgiven      for      whatever      I      have     
   ^  v  ^  v  ^  v  ^  v  ^  v  ^  v  ^  v  ^  v  | ^  v  ^  v  ^  v  ^  v  ^  v  ^  v  ^  v  ^  v 
e|-10-------10-10----10-10----10----10----10-10-10-|-8--------8--8-----8--8-----8-----8-----8--8--8--|
H|-11-------11-11----11-11----11----11----11-11-11-|-10-------10-10----10-10----10----10----10-10-10-|
G|-12-------12-12----12-12----12----12----12-12-12-|-10-------10-10----10-10----10----10----10-10-10-|
D|-12-------12-12----12-12----12----12----12-12-12-|-10-------10-10----10-10----10----10----10-10-10-|
A|-10-------10-10----10-10----10----10----10-10-10-|-8--------8--8-----8--8-----8-----8-----8--8--8--|
E|-------------------------------------------------|-------------------------------------------------|

   done
   ^  v  ^  v  ^  v  ^  v  ^  v  ^  v  ^  v  ^  v  |
e|-8--------8--8-----8--8-----8-----8-----8--8--8--|
H|-8--------8--8-----8--8-----8-----8-----8--8--8--|
G|-9--------9--9-----9--9-----9-----9-----9--9--9--|
D|-10-------10-10----10-10----10----10----10-10-10-|
A|-10-------10-10----10-10----10----10----10-10-10-|
E|-8--------8--8-----8--8-----8-----8-----8--8--8--|

   and        now        you        tell       me       never      say      it’s      not       for-
   ^  v  ^  v  ^  v  ^  v  ^  v  ^  v  ^  v  ^  v  | ^  v  ^  v  ^  v  ^  v  ^  v  ^  v  ^  v  ^  v 
e|-0-----0--0--0-----0--0-----0-----0-----0--0--0--|-1--------1--1-----1--1-----1-----1-----1--1--1--|
H|-0-----0--0--0-----0--0-----0-----0-----0--0--0--|-1--------1--1-----1--1-----1-----1-----1--1--1--|
G|-1-----1--1--1-----1--1-----1-----1-----1--1--1--|-2--------2--2-----2--2-----2-----2-----2--2--2--|
D|-2-----2--2--2-----2--2-----2-----2-----2--2--2--|-3--------3--3-----3--3-----3-----3-----3--3--3--|
A|-2-----2--2--2-----2--2-----2-----2-----2--2--2--|-3--------3--3-----3--3-----3-----3-----3--3--3--|
E|-0-----0--0--0-----0--0-----0-----0-----0--0--0--|-1--------1--1-----1--1-----1-----1-----1--1--1--|

      ever         take       it       from      tomorrow
   ^  v  ^  v  ^  v  ^  v  ^  v  ^  v  ^  v  ^  v  | ^  v  ^  v  ^  v  ^  v  ^  v  ^  v  ^  v  ^  v 
e|-0--------0--0-----0--0-----0-----0-----0--0--0--|-0--------0--0-----0--0-----0-----0-----0--0--0--|
H|-1--------1--1-----1--1-----1-----1-----1--1--1--|-0--------0--0-----0--0-----0-----0-----0--0--0--|
G|-2--------2--2-----2--2-----2-----2-----2--2--2--|-1--------1--1-----1--1-----1-----1-----1--1--1--|
D|-2--------2--2-----2--2-----2-----2-----2--2--2--|-2--------2--2-----2--2-----2-----2-----2--2--2--|
A|-0--------0--0-----0--0-----0-----0-----0--0--0--|-2--------2--2-----2--2-----2-----2-----2--2--2--|
E|-------------------------------------------------|-0--------0--0-----0--0-----0-----0-----0--0--0--|

      over        say        it’s        never        over      unless      it’s      gone      to-
   ^  v  ^  v  ^  v  ^  v  ^  v  ^  v  ^  v  ^  v  | ^  v  ^  v  ^  v  ^  v  ^  v  ^  v  ^  v  ^  v 
e|-1--------1--1-----1--1-----1-----1-----1--1--1--|-0--------0--0-----0--0-----0-----0-----0--0--0--|
H|-1--------1--1-----1--1-----1-----1-----1--1--1--|-1--------1--1-----1--1-----1-----1-----1--1--1--|
G|-2--------2--2-----2--2-----2-----2-----2--2--2--|-2--------2--2-----2--2-----2-----2-----2--2--2--|
D|-3--------3--3-----3--3-----3-----3-----3--3--3--|-2--------2--2-----2--2-----2-----2-----2--2--2--|
A|-3--------3--3-----3--3-----3-----3-----3--3--3--|-0--------0--0-----0--0-----0-----0-----0--0--0--|
E|-1--------1--1-----1--1-----1-----1-----1--1--1--|-------------------------------------------------|




   morrow
   ^  v  ^  v  ^  v  ^  v  ^  v  ^  v  ^  v  ^  v  |
e|-0--------0--0-----0--0-----0-----0-----0--0--0--|
H|-0--------0--0-----0--0-----0-----0-----0--0--0--|
G|-1--------1--1-----1--1-----1-----1-----1--1--1--|
D|-2--------2--2-----2--2-----2-----2-----2--2--2--|
A|-2--------2--2-----2--2-----2-----2-----2--2--2--|
E|-0--------0--0-----0--0-----0-----0-----0--0--0--|

                     today      I      wasn’t     evil      despite       all       they       have 
   ^  v  ^  v  ^  v  ^  v  ^  v  ^  v  ^  v  ^  v  | ^  v  ^  v  ^  v  ^  v  ^  v  ^  v  ^  v  ^  v 
e|-10-------10-10----10-10----10----10----10-10-10-|-8--------8--8-----8--8-----8-----8-----8--8--8--|
H|-11-------11-11----11-11----11----11----11-11-11-|-10-------10-10----10-10----10----10----10-10-10-|
G|-12-------12-12----12-12----12----12----12-12-12-|-10-------10-10----10-10----10----10----10-10-10-|
D|-12-------12-12----12-12----12----12----12-12-12-|-10-------10-10----10-10----10----10----10-10-10-|
A|-10-------10-10----10-10----10----10----10-10-10-|-8--------8--8-----8--8-----8-----8-----8--8--8--|
E|-------------------------------------------------|-------------------------------------------------|

   done                                                                i    laughed     until    the
   ^  v  ^  v  ^  v  ^  v  ^  v  ^  v  ^  v  ^  v  | ^  v  ^  v  ^  v  ^  v  ^  v  ^  v  ^  v  ^  v 
e|-8--------8--8-----8--8-----8-----8-----8--8--8--|-10-------10-10----10-10----10----10----10-10-10-|
H|-8--------8--8-----8--8-----8-----8-----8--8--8--|-11-------11-11----11-11----11----11----11-11-11-|
G|-9--------9--9-----9--9-----9-----9-----9--9--9--|-12-------12-12----12-12----12----12----12-12-12-|
D|-10-------10-10----10-10----10----10----10-10-10-|-12-------12-12----12-12----12----12----12-12-12-|
A|-10-------10-10----10-10----10----10----10-10-10-|-10-------10-10----10-10----10----10----10-10-10-|
E|-8--------8--8-----8--8-----8-----8-----8--8--8--|-------------------------------------------------|
 
   walls came down   with    everything     you’ve   done
   ^  v  ^  v  ^  v  ^  v  ^  v  ^  v  ^  v  ^  v  | ^  v  ^  v  ^  v  ^  v  ^  v  ^  v  ^  v  ^  v 
e|-8--------8--8-----8--8-----8-----8-----8--8--8--|-8--------8--8-----8--8-----8-----8-----8--8--8--|
H|-10-------10-10----10-10----10----10----10-10-10-|-8--------8--8-----8--8-----8-----8-----8--8--8--|
G|-10-------10-10----10-10----10----10----10-10-10-|-9--------9--9-----9--9-----9-----9-----9--9--9--|
D|-10-------10-10----10-10----10----10----10-10-10-|-10-------10-10----10-10----10----10----10-10-10-|
A|-8--------8--8-----8--8-----8-----8-----8--8--8--|-10-------10-10----10-10----10----10----10-10-10-|
E|-------------------------------------------------|-8--------8--8-----8--8-----8-----8-----8--8--8--|

   and        now        you        tell       me       never      say      it’s      not       for-
   ^  v  ^  v  ^  v  ^  v  ^  v  ^  v  ^  v  ^  v  | ^  v  ^  v  ^  v  ^  v  ^  v  ^  v  ^  v  ^  v 
e|-0-----0--0--0-----0--0-----0-----0-----0--0--0--|-1--------1--1-----1--1-----1-----1-----1--1--1--|
H|-0-----0--0--0-----0--0-----0-----0-----0--0--0--|-1--------1--1-----1--1-----1-----1-----1--1--1--|
G|-1-----1--1--1-----1--1-----1-----1-----1--1--1--|-2--------2--2-----2--2-----2-----2-----2--2--2--|
D|-2-----2--2--2-----2--2-----2-----2-----2--2--2--|-3--------3--3-----3--3-----3-----3-----3--3--3--|
A|-2-----2--2--2-----2--2-----2-----2-----2--2--2--|-3--------3--3-----3--3-----3-----3-----3--3--3--|
E|-0-----0--0--0-----0--0-----0-----0-----0--0--0--|-1--------1--1-----1--1-----1-----1-----1--1--1--|

      ever         take       it       from      tomorrow
   ^  v  ^  v  ^  v  ^  v  ^  v  ^  v  ^  v  ^  v  | ^  v  ^  v  ^  v  ^  v  ^  v  ^  v  ^  v  ^  v 
e|-0--------0--0-----0--0-----0-----0-----0--0--0--|-0--------0--0-----0--0-----0-----0-----0--0--0--|
H|-1--------1--1-----1--1-----1-----1-----1--1--1--|-0--------0--0-----0--0-----0-----0-----0--0--0--|
G|-2--------2--2-----2--2-----2-----2-----2--2--2--|-1--------1--1-----1--1-----1-----1-----1--1--1--|
D|-2--------2--2-----2--2-----2-----2-----2--2--2--|-2--------2--2-----2--2-----2-----2-----2--2--2--|
A|-0--------0--0-----0--0-----0-----0-----0--0--0--|-2--------2--2-----2--2-----2-----2-----2--2--2--|
E|-------------------------------------------------|-0--------0--0-----0--0-----0-----0-----0--0--0--|

      over        say        it’s        never        over      unless      it’s      gone      to-
   ^  v  ^  v  ^  v  ^  v  ^  v  ^  v  ^  v  ^  v  | ^  v  ^  v  ^  v  ^  v  ^  v  ^  v  ^  v  ^  v 
e|-1--------1--1-----1--1-----1-----1-----1--1--1--|-0--------0--0-----0--0-----0-----0-----0--0--0--|
H|-1--------1--1-----1--1-----1-----1-----1--1--1--|-1--------1--1-----1--1-----1-----1-----1--1--1--|
G|-2--------2--2-----2--2-----2-----2-----2--2--2--|-2--------2--2-----2--2-----2-----2-----2--2--2--|
D|-3--------3--3-----3--3-----3-----3-----3--3--3--|-2--------2--2-----2--2-----2-----2-----2--2--2--|
A|-3--------3--3-----3--3-----3-----3-----3--3--3--|-0--------0--0-----0--0-----0-----0-----0--0--0--|
E|-1--------1--1-----1--1-----1-----1-----1--1--1--|-------------------------------------------------|

   morrow                                            you         say         you’re          suffer-
   ^  v  ^  v  ^  v  ^  v  ^  v  ^  v  ^  v  ^  v  | ^  v  ^  v  ^  v  ^  v  ^  v  ^  v  ^  v  ^  v  |
e|-0--------0--0-----0--0-----0-----0-----0--0--0--|-0-----0--0--0-----0--0-----0-----0-----0--0--0--|
H|-0--------0--0-----0--0-----0-----0-----0--0--0--|-0-----0--0--0-----0--0-----0-----0-----0--0--0--|
G|-1--------1--1-----1--1-----1-----1-----1--1--1--|-1-----1--1--1-----1--1-----1-----1-----1--1--1--|
D|-2--------2--2-----2--2-----2-----2-----2--2--2--|-2-----2--2--2-----2--2-----2-----2-----2--2--2--|
A|-2--------2--2-----2--2-----2-----2-----2--2--2--|-2-----2--2--2-----2--2-----2-----2-----2--2--2--|
E|-0--------0--0-----0--0-----0-----0-----0--0--0--|-0-----0--0--0-----0--0-----0-----0-----0--0--0--|

   ing                                               SOLO BEGINS --->
   ^  v  ^  v  ^  v  ^  v  ^  v  ^  v  ^  v  ^  v  | ^  v  ^  v  ^  v  ^  v  ^  v  ^  v  ^  v  ^  v 
e|-2--------2--2-----2--2-----2-----2-----2--2--2--|-1--------1--1-----1--1-----1-----1-----1--1--1--|
H|-3--------3--3-----3--3-----3-----3-----3--3--3--|-1--------1--1-----1--1-----1-----1-----1--1--1--|
G|-2--------2--2-----2--2-----2-----2-----2--2--2--|-2--------2--2-----2--2-----2-----2-----2--2--2--|
D|-0--------0--0-----0--0-----0-----0-----0--0--0--|-3--------3--3-----3--3-----3-----3-----3--3--3--|
A|-------------------------------------------------|-3--------3--3-----3--3-----3-----3-----3--3--3--|
E|-------------------------------------------------|-1--------1--1-----1--1-----1-----1-----1--1--1--|


   ^  v  ^  v  ^  v  ^  v  ^  v  ^  v  ^  v  ^  v  | ^  v  ^  v  ^  v  ^  v  ^  v  ^  v  ^  v  ^  v 
e|-0--------0--0-----0--0-----0-----0-----0--0--0--|-2--------2--2-----2--2-----2-----2-----2--2--2--|
H|-2--------2--2-----2--2-----2-----2-----2--2--2--|-3--------3--3-----3--3-----3-----3-----3--3--3--|
G|-2--------2--2-----2--2-----2-----2-----2--2--2--|-2--------2--2-----2--2-----2-----2-----2--2--2--|
D|-2--------2--2-----2--2-----2-----2-----2--2--2--|-0--------0--0-----0--0-----0-----0-----0--0--0--|
A|-0--------0--0-----0--0-----0-----0-----0--0--0--|-------------------------------------------------|
E|-------------------------------------------------|-------------------------------------------------|


   ^  v  ^  v  ^  v  ^  v  ^  v  ^  v  ^  v  ^  v  | ^  v  ^  v  ^  v  ^  v  ^  v  ^  v  ^  v  ^  v 
e|-1--------1--1-----1--1-----1-----1-----1--1--1--|-0--------0--0-----0--0-----0-----0-----0--0--0--|
H|-1--------1--1-----1--1-----1-----1-----1--1--1--|-2--------2--2-----2--2-----2-----2-----2--2--2--|
G|-2--------2--2-----2--2-----2-----2-----2--2--2--|-2--------2--2-----2--2-----2-----2-----2--2--2--|
D|-3--------3--3-----3--3-----3-----3-----3--3--3--|-2--------2--2-----2--2-----2-----2-----2--2--2--|
A|-3--------3--3-----3--3-----3-----3-----3--3--3--|-0--------0--0-----0--0-----0-----0-----0--0--0--|
E|-1--------1--1-----1--1-----1-----1-----1--1--1--|-------------------------------------------------|


   ^  v  ^  v  ^  v  ^  v  ^  v  ^  v  ^  v  ^  v  | ^  v  ^  v  ^  v  ^  v  ^  v  ^  v  ^  v  ^  v 
e|-2--------2--2-----2--2-----2-----2-----2--2--2--|-1--------1--1-----1--1-----1-----1-----1--1--1--|
H|-3--------3--3-----3--3-----3-----3-----3--3--3--|-1--------1--1-----1--1-----1-----1-----1--1--1--|
G|-2--------2--2-----2--2-----2-----2-----2--2--2--|-2--------2--2-----2--2-----2-----2-----2--2--2--|
D|-0--------0--0-----0--0-----0-----0-----0--0--0--|-3--------3--3-----3--3-----3-----3-----3--3--3--|
A|-------------------------------------------------|-3--------3--3-----3--3-----3-----3-----3--3--3--|
E|-------------------------------------------------|-1--------1--1-----1--1-----1-----1-----1--1--1--|


   ^  v  ^  v  ^  v  ^  v  ^  v  ^  v  ^  v  ^  v  | ^  v  ^  v  ^  v  ^  v  ^  v  ^  v  ^  v  ^  v 
e|-0--------0--0-----0--0-----0-----0-----0--0--0--|-0--------0--0-----0--0-----0-----0-----0--0--0--|
H|-1--------1--1-----1--1-----1-----1-----1--1--1--|-0--------0--0-----0--0-----0-----0-----0--0--0--|
G|-2--------2--2-----2--2-----2-----2-----2--2--2--|-1--------1--1-----1--1-----1-----1-----1--1--1--|
D|-2--------2--2-----2--2-----2-----2-----2--2--2--|-2--------2--2-----2--2-----2-----2-----2--2--2--|
A|-0--------0--0-----0--0-----0-----0-----0--0--0--|-2--------2--2-----2--2-----2-----2-----2--2--2--|
E|-------------------------------------------------|-0--------0--0-----0--0-----0-----0-----0--0--0--|

                                   <--- SOLO ENDS      never      say      it’s      not       for-  
   ^  v  ^  v  ^  v  ^  v  ^  v  ^  v  ^  v  ^  v  | ^  v  ^  v  ^  v  ^  v  ^  v  ^  v  ^  v  ^  v 
e|-0-----0--0--0-----0--0-----0-----0-----0--0--0--|-1--------1--1-----1--1-----1-----1-----1--1--1--|
H|-0-----0--0--0-----0--0-----0-----0-----0--0--0--|-1--------1--1-----1--1-----1-----1-----1--1--1--|
G|-1-----1--1--1-----1--1-----1-----1-----1--1--1--|-2--------2--2-----2--2-----2-----2-----2--2--2--|
D|-2-----2--2--2-----2--2-----2-----2-----2--2--2--|-3--------3--3-----3--3-----3-----3-----3--3--3--|
A|-2-----2--2--2-----2--2-----2-----2-----2--2--2--|-3--------3--3-----3--3-----3-----3-----3--3--3--|
E|-0-----0--0--0-----0--0-----0-----0-----0--0--0--|-1--------1--1-----1--1-----1-----1-----1--1--1--|

      ever         take       it       from      tomorrow
   ^  v  ^  v  ^  v  ^  v  ^  v  ^  v  ^  v  ^  v  | ^  v  ^  v  ^  v  ^  v  ^  v  ^  v  ^  v  ^  v 
e|-0--------0--0-----0--0-----0-----0-----0--0--0--|-0--------0--0-----0--0-----0-----0-----0--0--0--|
H|-1--------1--1-----1--1-----1-----1-----1--1--1--|-0--------0--0-----0--0-----0-----0-----0--0--0--|
G|-2--------2--2-----2--2-----2-----2-----2--2--2--|-1--------1--1-----1--1-----1-----1-----1--1--1--|
D|-2--------2--2-----2--2-----2-----2-----2--2--2--|-2--------2--2-----2--2-----2-----2-----2--2--2--|
A|-0--------0--0-----0--0-----0-----0-----0--0--0--|-2--------2--2-----2--2-----2-----2-----2--2--2--|
E|-------------------------------------------------|-0--------0--0-----0--0-----0-----0-----0--0--0--|

      over        say        it’s        never        over      unless      it’s      gone      to-
   ^  v  ^  v  ^  v  ^  v  ^  v  ^  v  ^  v  ^  v  | ^  v  ^  v  ^  v  ^  v  ^  v  ^  v  ^  v  ^  v 
e|-1--------1--1-----1--1-----1-----1-----1--1--1--|-0--------0--0-----0--0-----0-----0-----0--0--0--|
H|-1--------1--1-----1--1-----1-----1-----1--1--1--|-1--------1--1-----1--1-----1-----1-----1--1--1--|
G|-2--------2--2-----2--2-----2-----2-----2--2--2--|-2--------2--2-----2--2-----2-----2-----2--2--2--|
D|-3--------3--3-----3--3-----3-----3-----3--3--3--|-2--------2--2-----2--2-----2-----2-----2--2--2--|
A|-3--------3--3-----3--3-----3-----3-----3--3--3--|-0--------0--0-----0--0-----0-----0-----0--0--0--|
E|-1--------1--1-----1--1-----1-----1-----1--1--1--|-------------------------------------------------|

   morrow
   ^  v  ^  v  ^  v  ^  v  ^  v  ^  v  ^  v  ^  v  | ^  v  ^  v  ^  v  ^  v  ^  v  ^  v  ^  v  ^  v 
e|-0-----0--0--0-----0--0-----0-----0-----0--0--0--|-1--------1--1-----1--1-----1-----1-----1--1--1--|
H|-0-----0--0--0-----0--0-----0-----0-----0--0--0--|-1--------1--1-----1--1-----1-----1-----1--1--1--|
G|-1-----1--1--1-----1--1-----1-----1-----1--1--1--|-2--------2--2-----2--2-----2-----2-----2--2--2--|
D|-2-----2--2--2-----2--2-----2-----2-----2--2--2--|-3--------3--3-----3--3-----3-----3-----3--3--3--|
A|-2-----2--2--2-----2--2-----2-----2-----2--2--2--|-3--------3--3-----3--3-----3-----3-----3--3--3--|
E|-0-----0--0--0-----0--0-----0-----0-----0--0--0--|-1--------1--1-----1--1-----1-----1-----1--1--1--|


   ^  v  ^  v  ^  v  ^  v  ^  v  ^  v  ^  v  ^  v  | ^  v  ^  v  ^  v  ^  v  ^  v  ^  v  ^  v  ^  v 
e|-0--------0--0-----0--0-----0-----0-----0--0--0--|-0--------0--0-----0--0-----0-----0-----0--0--0--|
H|-1--------1--1-----1--1-----1-----1-----1--1--1--|-0--------0--0-----0--0-----0-----0-----0--0--0--|
G|-2--------2--2-----2--2-----2-----2-----2--2--2--|-1--------1--1-----1--1-----1-----1-----1--1--1--|
D|-2--------2--2-----2--2-----2-----2-----2--2--2--|-2--------2--2-----2--2-----2-----2-----2--2--2--|
A|-0--------0--0-----0--0-----0-----0-----0--0--0--|-2--------2--2-----2--2-----2-----2-----2--2--2--|
E|-------------------------------------------------|-0--------0--0-----0--0-----0-----0-----0--0--0--|


   ^  v  ^  v  ^  v  ^  v  ^  v  ^  v  ^  v  ^  v  | ^  v  ^  v  ^  v  ^  v  ^  v  ^  v  ^  v  ^  v 
e|-1--------1--1-----1--1-----1-----1-----1--1--1--|-0--------0--0-----0--0-----0-----0-----0--0--0--|
H|-1--------1--1-----1--1-----1-----1-----1--1--1--|-1--------1--1-----1--1-----1-----1-----1--1--1--|
G|-2--------2--2-----2--2-----2-----2-----2--2--2--|-2--------2--2-----2--2-----2-----2-----2--2--2--|
D|-3--------3--3-----3--3-----3-----3-----3--3--3--|-2--------2--2-----2--2-----2-----2-----2--2--2--|
A|-3--------3--3-----3--3-----3-----3-----3--3--3--|-0--------0--0-----0--0-----0-----0-----0--0--0--|
E|-1--------1--1-----1--1-----1-----1-----1--1--1--|-------------------------------------------------|


   ^  v  ^  v  ^  v  ^  v  ^  v  ^  v  ^  v  ^  v  | ^  v  ^  v  ^  v  ^  v  ^  v  ^  v  ^  v  ^  v 
e|-0-----0--0--0-----0--0-----0-----0-----0--0--0--|-1--------1--1-----1--1-----1-----1-----1--1--1--|
H|-0-----0--0--0-----0--0-----0-----0-----0--0--0--|-1--------1--1-----1--1-----1-----1-----1--1--1--|
G|-1-----1--1--1-----1--1-----1-----1-----1--1--1--|-2--------2--2-----2--2-----2-----2-----2--2--2--|
D|-2-----2--2--2-----2--2-----2-----2-----2--2--2--|-3--------3--3-----3--3-----3-----3-----3--3--3--|
A|-2-----2--2--2-----2--2-----2-----2-----2--2--2--|-3--------3--3-----3--3-----3-----3-----3--3--3--|
E|-0-----0--0--0-----0--0-----0-----0-----0--0--0--|-1--------1--1-----1--1-----1-----1-----1--1--1--|


   ^  v  ^  v  ^  v  ^  v  ^  v  ^  v  ^  v  ^  v  | ^  v  ^  v  ^  v  ^  v  ^  v  ^  v  ^  v  ^  v 
e|-0--------0--0-----0--0-----0-----0-----0--0--0--|-0--------0--0-----0--0-----0-----0-----0--0--0--|
H|-1--------1--1-----1--1-----1-----1-----1--1--1--|-0--------0--0-----0--0-----0-----0-----0--0--0--|
G|-2--------2--2-----2--2-----2-----2-----2--2--2--|-1--------1--1-----1--1-----1-----1-----1--1--1--|
D|-2--------2--2-----2--2-----2-----2-----2--2--2--|-2--------2--2-----2--2-----2-----2-----2--2--2--|
A|-0--------0--0-----0--0-----0-----0-----0--0--0--|-2--------2--2-----2--2-----2-----2-----2--2--2--|
E|-------------------------------------------------|-0--------0--0-----0--0-----0-----0-----0--0--0--|


   ^  v  ^  v  ^  v  ^  v  ^  v  ^  v  ^  v  ^  v  | ^
e|-0--------0--0-----0--0-----0-----0-----0--0--0--|-2-----------------------------------------------|
H|-0--------0--0-----0--0-----0-----0-----0--0--0--|-3-----------------------------------------------|
G|-1--------1--1-----1--1-----1-----1-----1--1--1--|-2-----------------------------------------------|
D|-2--------2--2-----2--2-----2-----2-----2--2--2--|-0-----------------------------------------------|
A|-2--------2--2-----2--2-----2-----2-----2--2--2--|-------------------------------------------------|
E|-0--------0--0-----0--0-----0-----0-----0--0--0--|-------------------------------------------------|

            
            
Suggest correction
Creating personal tab
Creating personal tab
You can edit any tab online and save it as your Personal.

You can edit, replace or remove any tab part or add personal notes – all changes will be seen only by you.

Personal tabs can be accessed anytime from any device, even offline.
Learn more »
Give kudos to tab author, rate the tab!
1 2 3 4 5
comments
print report bad tab
1 comment total.
0 reply
rainybruce 52 Nov 13, 2012 01:18 AM

Hi Leute! Ich hoffe Ihr kommt mit dem Tab klar. Ich hab versucht auch das Anschlagsmuster darzustellen um euch da eine kleine Hilfe zu geben. So sollte es vom Anschlag her sehr nah ans Original kommen. Zum Solo gilt auch hier, dass es keine Zauberei ist und man sich gut die Pentatonik zur Hilfe nehmen kann. Einfach mal über das gesamte Lied improvisieren und anschließend versuchen die richtigen Töne für's Solo zu finden. Wenn ich mal Zeit hab, schreib ich das vielleicht nochmal extra auf. Viel Spaß mit den Tabs!!!

guest
You may want to rate the tab now too:
select rating
Wanna post a correction for this tab? Suggest correction