Oops, an error
Loading. Please wait.

Same Sane Tab

2,032 views 9 this week
no commentswrite comment
1 2 3 4 5
please rate
add to favorites
launch autoscroll
font size
0
reset
how to read this tab
guitar tuner
Autoscroll
slow
fast
+/-
esc
set tempo
stop
Help us to improve Ultimate-Guitar.com Take our survey!
×
Author
Difficulty
intermediate
This is how I would play this song, with two guitars.
I don't think the band plays it like this, but it sounds good.
The first guitar plays power chords, the second, the tabed notes.

Verse :
F#5                              C#5
-----------------------------------------------------------------|
-----------------------------------------------------------------|
-9-9-9-9-9-9-9-9-9-9-9-9-9-9-9-9-9-9-9-9-9-9-9-9-9-9-9-9-9-9-9-9-|
-----------------------------------------------------------------|
-7-7-7-7-7-7-7-7-7-7-7-7-7-7-7-7-7-7-7-7-7-7-7-7-7-7-7-7-7-7-7-7-|
-----------------------------------------------------------------|
              Slip out of my skin              deny and try again

G#5                              B5
---------------------------------------------------------------------------------|
---------------------------------------------------------------------------------|
-8-8-8-8-8-8-8-8-8-8-8-8-8-8-8-8-11-11-11-11-11-11-11-11-11-11-11-11-11-11-11-11-|
---------------------------------------------------------------------------------|
-6-6-6-6-6-6-6-6-6-6-6-6-6-6-6-6-9--9--9--9--9--9--9--9--9--9--9--9--9--9--9--9--|
---------------------------------------------------------------------------------|
            a green trap kit is where I've been

Stop deciding
Whatever will remain
Both of us will lie again
Captured with a shame

F#5                              C#5
-------------------------------------------------------------------------|
-------------------------------------------------------------------------|
-9-9-9-9-9-9-9-9-9-9-9-9-9-9-9-9-9-9-9-9-9-9-9-9-13-13-13-13-13-13-13-13-|
-------------------------------------------------------------------------|
-7-7-7-7-7-7-7-7-7-7-7-7-7-7-7-7-7-7-7-7-7-7-7-7-9--9--9--9--9--9--9--9--|
-------------------------------------------------------------------------|
                 Leave in silence                    don't cause any pain

G#5                              B5
---------------------------------------------------------------------------------|
---------------------------------------------------------------------------------|
-8-8-8-8-8-8-8-8-8-8-8-8-8-8-8-8-11-11-11-11-11-11-11-11-11-11-11-11-11-11-11-11-|
---------------------------------------------------------------------------------|
-6-6-6-6-6-6-6-6-6-6-6-6-6-6-6-6-9--9--9--9--9--9--9--9--9--9--9--9--9--9--9--9--|
---------------------------------------------------------------------------------|
        Liveable but in your brain                 we'll never be the same again


Chorus :
A5                                               C#5
-------------------------------------------------------------------------------------------------|
-------------------------------------------------12-12-12-12-12-12-12-12-12-12-12-12-12-12-12-12-|
-11-11-11-11-11-11-11-11-11-11-11-11-11-11-11-11-------------------------------------------------|
-------------------------------------------------9--9--9--9--9--9--9--9--9--9--9--9--9--9--9--9--|
-9--9--9--9--9--9--9--9--9--9--9--9--9--9--9--9--------------------------------------------------|
-------------------------------------------------------------------------------------------------|
                           We came up fighting in                we're tearing down what 
begin

B5                                               A5                      B5
-------------------------------------------------------------------------------------------------|
-16-16-16-16-16-16-16-16-16-16-16-16-16-16-16-16-------------------------------------------------|
-------------------------------------------------11-11-11-11-11-11-11-11-11-11-11-11-11-11-11-11-|
-13-13-13-13-13-13-13-13-13-13-13-13-13-13-13-13-------------------------------------------------|
-------------------------------------------------9--9--9--9--9--9--9--9--9--9--9--9--9--9--9--9--|
-------------------------------------------------------------------------------------------------|
                              Tear it down again               and no-one else can take 
blame

The day before you came
I was affected by the latest bliss
Come on over and take the risk

Solo :
F#5                              C#5
-----------------------------------------------------------------|
-----------------------------------------------------------------|
-4b6-------------------2b4-------\1------------------------------|
--------------------------------------------1---b-----2--r---1---|
-----------------------------------------------------------------|
-----------------------------------------------------------------|

G#5                              B5                              F#5 ...
-----------------------------------------------------------------------------|
-3b4----------b5r4r3--b--4--4--6b7--------b9--r--6--b--7---------13b14-------|
-----------------------------------------------------------------------------|
-----------------------------------------------------------------------------|
-----------------------------------------------------------------------------|
-----------------------------------------------------------------------------|

Verse :
This time we built up
A function to get numb
But nothing will remain
And we'll never be the same again

Chorus :
We came up fighting in
we're tearing down what we begin
Tear it down again
and no-one else can take the blame
The day before you came
I was affected by the latest bliss
Come on over and take the risk

Instrumental :
F#5 E5 D5 B5
F#5 E5 D5 B5
F#5 C#5 G#5 B5
F#5 C#5 G#5 B5

Verse :
Someone turns off
The close-up of this scene
And every little thing I've seen
Will never be the same again

Chorus :
We came up fighting in
we're tearing down what we begin
Tear it down again
and no-one else can take the blame
The day before you came
I was affected by the latest bliss
Come on over and take the risk

F#5

end.
Suggest correction
Give kudos to tab author, rate the tab!
1 2 3 4 5
comments
print report bad tab
guest
You may want to rate the tab now too:
select rating
Please do not post tabs as comments. Select "correction" instead!