Oops, an error
Loading. Please wait.

Coming Home tab

43 views 1 this week
no commentswrite comment
1 2 3 4 5
3 more votes to show rating
add to favorites
×
Save as Personal and add changes to this tab that will be seen only by you. Learn more ›
×
You can save this tab as Personal to edit and correct it or add notes. All changes will be seen only by you. Learn more »
launch autoscroll
font size
0
reset
how to read this tab
guitar tuner
edit
Autoscroll
slow
fast
+/-
esc
set tempo
stop
Coming Home - Blackmore's Night
Tabbed by Grant Dineen

========================================================================
Coming Home
========================================================================

Riff 1
e|----------0---------0----3-----1----0---------0h1p0------------------|
B|-----1h3------1h3------------------------3-------------3----1----0---|_____
G|--0------------------------------------------------------------------|     \
D|---------------------------------------------------------------------|      \
A|---------------------------------------------------------------------|       \
E|---------------------------------------------------------------------|        \
                                                                                 \
e|---------------------------------------------------------------------|          \
B|-----------------------3----5------3h5p3-----------------------------|           \
G|--0----2-----4----5--------------------------------------------------|            \
D|---------------------------------------------------------------------|             \
A|---------------------------------------------------------------------|              \
E|---------------------------------------------------------------------|               2x 
                                                                                      /
Riff 2                                                                               /
e|----------0---------0----3-----1----0---------0h1p0------------------|            /
B|-----1h3------1h3------------------------3-------------3----1----0---|           /
G|--0------------------------------------------------------------------|          /
D|---------------------------------------------------------------------|         /
A|---------------------------------------------------------------------|        /  
E|---------------------------------------------------------------------|       /
                                                                              /
e|---------------------------------------------------------------------|     /
B|---------------------------------------------------------------------|    /
G|--0----2-----4----5--------------------------------------------------|___/
D|---------------------------------------------------------------------|
A|---------------------------------------------------------------------|
E|---------------------------------------------------------------------|

Riff 3
e|--3---------3----------5--------5----------1----------1---------1--3-|
B|-----5---------5----------6--------6----------3--0-------3--0--------|
G|---------5--------5----------5--------5------------------------------| 
D|---------------------------------------------------------------------|
A|---------------------------------------------------------------------|
E|---------------------------------------------------------------------|

Riff 2
e|----------0---------0----3-----1----0---------0h1p0------------------|
B|-----1h3------1h3------------------------3-------------3----1----0---|
G|--0------------------------------------------------------------------| 
D|---------------------------------------------------------------------|
A|---------------------------------------------------------------------|
E|---------------------------------------------------------------------|

e|---------------------------------------------------------------------|
B|---------------------------------------------------------------------|
G|--0----2-----4----5--------------------------------------------------| 
D|---------------------------------------------------------------------|
A|---------------------------------------------------------------------|
E|---------------------------------------------------------------------|   

G* (Optional. You could just strum a normal G chord) 
e|---------------------------------------------------------------------|
B|-3----3-3-3------5---5-5-5-----6--6-6-6----8--8-8-8----8-8-8-8-8-8-8-|
G|-0----0-0-0------0---0-0-0-----0--0-0-0----0--0-0-0----0-0-0-0-0-0-0-| 
D|-0----0-0-0------0---0-0-0-----0--0-0-0----0--0-0-0----0-0-0-0-0-0-0-|
A|---------------------------------------------------------------------|
E|---------------------------------------------------------------------|

Riff 1
e|----------0---------0----3-----1----0---------0h1p0------------------|
B|-----1h3------1h3------------------------3-------------3----1----0---|_____
G|--0------------------------------------------------------------------|     \
D|---------------------------------------------------------------------|      \
A|---------------------------------------------------------------------|       \
E|---------------------------------------------------------------------|        \
                                                                                 \
e|---------------------------------------------------------------------|          \
B|-----------------------3----5------3h5p3-----------------------------|           \
G|--0----2-----4----5--------------------------------------------------|            \
D|---------------------------------------------------------------------|             \
A|---------------------------------------------------------------------|              \
E|---------------------------------------------------------------------|               2x 
                                                                                      /
Riff 2                                                                               /
e|----------0---------0----3-----1----0---------0h1p0------------------|            /
B|-----1h3------1h3------------------------3-------------3----1----0---|           /
G|--0------------------------------------------------------------------|          /
D|---------------------------------------------------------------------|         /
A|---------------------------------------------------------------------|        /  
E|---------------------------------------------------------------------|       /
                                                                              /
e|---------------------------------------------------------------------|     /
B|---------------------------------------------------------------------|    /
G|--0----2-----4----5--------------------------------------------------|___/
D|---------------------------------------------------------------------|
A|---------------------------------------------------------------------|
E|---------------------------------------------------------------------|

G* (Optional. You could just strum a normal G chord) 
e|---------------------------------------------------------------------|
B|-3----3-3-3------5---5-5-5-----6--6-6-6----8--8-8-8----8-8-8-8-8-8-8-|
G|-0----0-0-0------0---0-0-0-----0--0-0-0----0--0-0-0----0-0-0-0-0-0-0-| 
D|-0----0-0-0------0---0-0-0-----0--0-0-0----0--0-0-0----0-0-0-0-0-0-0-|
A|---------------------------------------------------------------------|
E|---------------------------------------------------------------------|

[Verse 1]
C                F            C
All my life I've followed the call
F              C                   G
It goes right through me wherever I go
C             F         Em
War is over, I'm on my own
F             C      G  
She's calling to me, I'm coming home

Riff 1
e|----------0---------0----3-----1----0---------0h1p0------------------|
B|-----1h3------1h3------------------------3-------------3----1----0---|_____
G|--0------------------------------------------------------------------|     \
D|---------------------------------------------------------------------|      \
A|---------------------------------------------------------------------|       \
E|---------------------------------------------------------------------|        \
                                                                                 \
e|---------------------------------------------------------------------|          \
B|-----------------------3----5------3h5p3-----------------------------|           \
G|--0----2-----4----5--------------------------------------------------|            \
D|---------------------------------------------------------------------|             \
A|---------------------------------------------------------------------|              \
E|---------------------------------------------------------------------|               2x 
                                                                                      /
Riff 2                                                                               /
e|----------0---------0----3-----1----0---------0h1p0------------------|            /
B|-----1h3------1h3------------------------3-------------3----1----0---|           /
G|--0------------------------------------------------------------------|          /
D|---------------------------------------------------------------------|         /
A|---------------------------------------------------------------------|        /  
E|---------------------------------------------------------------------|       /
                                                                              /
e|---------------------------------------------------------------------|     /
B|---------------------------------------------------------------------|    /
G|--0----2-----4----5--------------------------------------------------|___/
D|---------------------------------------------------------------------|
A|---------------------------------------------------------------------|
E|---------------------------------------------------------------------|

Riff 3
e|--3---------3----------5--------5----------1----------1---------1--3-|
B|-----5---------5----------6--------6----------3--0-------3--0--------|
G|---------5--------5----------5--------5------------------------------| 
D|---------------------------------------------------------------------|
A|---------------------------------------------------------------------|
E|---------------------------------------------------------------------|

Riff 2
e|----------0---------0----3-----1----0---------0h1p0------------------|
B|-----1h3------1h3------------------------3-------------3----1----0---|
G|--0------------------------------------------------------------------| 
D|---------------------------------------------------------------------|
A|---------------------------------------------------------------------|
E|---------------------------------------------------------------------|

e|---------------------------------------------------------------------|
B|---------------------------------------------------------------------|
G|--0----2-----4----5--------------------------------------------------| 
D|---------------------------------------------------------------------|
A|---------------------------------------------------------------------|
E|---------------------------------------------------------------------|   

G* (Optional. You could just strum a normal G chord) 
e|---------------------------------------------------------------------|
B|-3----3-3-3------5---5-5-5-----6--6-6-6----8--8-8-8----8-8-8-8-8-8-8-|
G|-0----0-0-0------0---0-0-0-----0--0-0-0----0--0-0-0----0-0-0-0-0-0-0-| 
D|-0----0-0-0------0---0-0-0-----0--0-0-0----0--0-0-0----0-0-0-0-0-0-0-|
A|---------------------------------------------------------------------|
E|---------------------------------------------------------------------|

[Verse 2]
C                F            C
In the distance, do you hear the call?
F              C                   G
O'er hills and mountains and broken roads
C                      F         Em
A soldier's shadow marches till dawn
F                 C        G  
Through dust and ashes, they're coming home

Riff 1
e|----------0---------0----3-----1----0---------0h1p0------------------|
B|-----1h3------1h3------------------------3-------------3----1----0---|_____
G|--0------------------------------------------------------------------|     \
D|---------------------------------------------------------------------|      \
A|---------------------------------------------------------------------|       \
E|---------------------------------------------------------------------|        \
                                                                                 \
e|---------------------------------------------------------------------|          \
B|-----------------------3----5------3h5p3-----------------------------|           \
G|--0----2-----4----5--------------------------------------------------|            \
D|---------------------------------------------------------------------|             \
A|---------------------------------------------------------------------|              \
E|---------------------------------------------------------------------|               2x 
                                                                                      /
Riff 2                                                                               /
e|----------0---------0----3-----1----0---------0h1p0------------------|            /
B|-----1h3------1h3------------------------3-------------3----1----0---|           /
G|--0------------------------------------------------------------------|          /
D|---------------------------------------------------------------------|         /
A|---------------------------------------------------------------------|        /  
E|---------------------------------------------------------------------|       /
                                                                              /
e|---------------------------------------------------------------------|     /
B|---------------------------------------------------------------------|    /
G|--0----2-----4----5--------------------------------------------------|___/
D|---------------------------------------------------------------------|
A|---------------------------------------------------------------------|
E|---------------------------------------------------------------------|

Riff 3
e|--3---------3----------5--------5----------1----------1---------1--3-|
B|-----5---------5----------6--------6----------3--0-------3--0--------|
G|---------5--------5----------5--------5------------------------------| 
D|---------------------------------------------------------------------|
A|---------------------------------------------------------------------|
E|---------------------------------------------------------------------|

Riff 2
e|----------0---------0----3-----1----0---------0h1p0------------------|
B|-----1h3------1h3------------------------3-------------3----1----0---|
G|--0------------------------------------------------------------------| 
D|---------------------------------------------------------------------|
A|---------------------------------------------------------------------|
E|---------------------------------------------------------------------|

e|---------------------------------------------------------------------|
B|---------------------------------------------------------------------|
G|--0----2-----4----5--------------------------------------------------| 
D|---------------------------------------------------------------------|
A|---------------------------------------------------------------------|
E|---------------------------------------------------------------------|   

Riff 4
e|-6--5-----6--5------5--6--8--6--5-------6--5-----6--5-----5----------|
B|-------8--------8------------------8----------8--------8-----8--6--8-|
G|---------------------------------------------------------------------| 
D|---------------------------------------------------------------------|
A|---------------------------------------------------------------------|
E|---------------------------------------------------------------------|

e|-6--5-----6--5------5--6--8--6--5--------5--6--8---------------------|
B|-------8--------8------------------8-------------------5--6--8-------|
G|---------------------------------------------------------------------| 
D|---------------------------------------------------------------------|
A|---------------------------------------------------------------------|
E|---------------------------------------------------------------------|

*Capo on 2nd fret now or play chords in brackets for the rest of the song

[Verse 3]
C(D)              F(G)       C(D)
When the darkness becomes the dawn
F(G)            C(D)              G(A)
When all the shadows have finally gone
C(D)          F(G)      Em(F#m)
Morning star will lead you on
F(G)        C(D)   G(A)        C(D)
Where you belong, you're going home
G(A)       C(D)
I'm coming home

We're going home

Riff 1
e|----------0---------0----3-----1----0---------0h1p0------------------|
B|-----1h3------1h3------------------------3-------------3----1----0---|_____
G|--0------------------------------------------------------------------|     \
D|---------------------------------------------------------------------|      \
A|---------------------------------------------------------------------|       \
E|---------------------------------------------------------------------|        \
                                                                                 \
e|---------------------------------------------------------------------|          \
B|-----------------------3----5------3h5p3-----------------------------|           \
G|--0----2-----4----5--------------------------------------------------|            \
D|---------------------------------------------------------------------|             \
A|---------------------------------------------------------------------|              \
E|---------------------------------------------------------------------|               3x 
                                                                                      /
Riff 2                                                                               /
e|----------0---------0----3-----1----0---------0h1p0------------------|            /
B|-----1h3------1h3------------------------3-------------3----1----0---|           /
G|--0------------------------------------------------------------------|          /
D|---------------------------------------------------------------------|         /
A|---------------------------------------------------------------------|        /  
E|---------------------------------------------------------------------|       /
                                                                              /
e|---------------------------------------------------------------------|     /
B|---------------------------------------------------------------------|    /
G|--0----2-----4----5--------------------------------------------------|___/
D|---------------------------------------------------------------------|
A|---------------------------------------------------------------------|
E|---------------------------------------------------------------------|

===============================================#
Legend                                         #
===============================================#
| h  hammer-on                                 #
| p  pull-off                                  #
===============================================#

            
            
Suggest correction
Creating personal tab
Creating personal tab
You can edit any tab online and save it as your Personal.

You can edit, replace or remove any tab part or add personal notes – all changes will be seen only by you.

Personal tabs can be accessed anytime from any device, even offline.
Learn more »
Give kudos to tab author, rate the tab!
1 2 3 4 5
comments
print report bad tab
guest
You may want to rate the tab now too:
select rating
Wanna post a correction for this tab? Suggest correction