Oops, an error
Loading. Please wait.

Fayre Thee Well Tab

version 2
version 2

Whole song

Interactive

620 views 1 this week
no commentswrite comment
1 2 3 4 5
please rate
add to favorites
launch autoscroll
font size
0
reset
how to read this tab
guitar tuner
Tab Pro tools
  • play this tab
  • loop segment
  • change instrument
  • show fretboard
  • metronome
Autoscroll
slow
fast
+/-
esc
set tempo
stop
Contributor
Difficulty
intermediate
Gtr I (E A D G B E) - 'Untitled'
Gtr II (E A D G B E) - 'Untitled'


  Q=140
 4/4
  Gtr I
  E E Q   Q   Q   Q   E E E E Q   E E Q   Q   Q   E E Q Q   Q
|-2-4-5---7---5---0---2-0-------------------------------2---0-----|
|-------------------------3-2-0---2-3-2---0-------0-2-3-----------|
|---------------------------------------------2-------------------|
|-----------------------------------------------------------------|
|-----------------------------------------------------------------|
|-----------------------------------------------------------------|
|
| Gtr II
| E E E E E E E E E E E E E E E E E E E E E E E E E E E E E E Q
|-----------------------------------------------------------------|
|-----------------------------------------------------------------|
|---------4-------------------------------------------------------|
|-4-6-7-------7-------4-----------------------------------4-------|
|-------7---7---7-7-----7-5-4-----4-5-4-0-------7---4-5-0---0-7---|
|-------------------5---------7-0---------7-0-5---7---------------|


  E E Q  Q  Q    Q  E E E E Q    E E Q   Q       Q   E E W
|-2-4-5--7--5--|-0--2-0--------|-----0---4-----|-7---5-4-4tr5---|
|--------------|--------3-2-0--|-2-3-----------|----------------|
|--------------|---------------|---------------|----------------|
|--------------|---------------|---------------|----------------|
|--------------|---------------|---------------|----------------|
|--------------|---------------|---------------|----------------|
|
| E E Q  Q  Q    Q  E E E E Q    E E E E E E     E E E E W
|-2-4-5--7--5--|-0-------------|---------------|---------5------|
|-2-0-5--5--5--|------------0--|---------------|----------------|
|--------------|---------------|---------------|-4--------------|
|--------------|-2--4-2-0------|---------6-----|-----7-6-7------|
|--------------|----------4-2--|-4-5-7-0---7---|---5------------|
|--------------|---------------|---------------|----------------|


   E  E  Q.      E  E  E  E  E  Q.      E  E  E  E  E  Q.      E  E  E  E  E  E E H
|--9-10-12------12-10--9--7--9-10------10--9--7--5--7--9-------9--7--5--7--5--4-2-0----|
|--------------------------------------------------------------------------------------|
|--------------------------------------------------------------------------------------|
|--------------------------------------------------------------------------------------|
|--------------------------------------------------------------------------------------|
|--------------------------------------------------------------------------------------|
|
|  E  E  Q.      E  E  E  E  E  Q.      E  E  E  E  E  Q.      E  E  E  E  E  E E H
|--------------------------------------------------------------------------------------|
|---------------------------------------------------------------------------------9----|
|--------------------------------------------------------------------------------------|
|-11-12-12tr14--14-12-11---------------------------------------------------------------|
|------------------------14-16-16tr17--17-16-14-12-14-14tr16--16-14-12-14-12-11-9-7----|
|--------------------------------------------------------------------------------------|


   E  E  Q.    E  E  E    E  E  Q.    E  E  E
|--9-10-12----12-10--9-|--7--9-10----10--9--7-|
|----------------------|----------------------|
|----------------------|----------------------|
|----------------------|----------------------|
|----------------------|----------------------|
|----------------------|----------------------|
|
|  E  E  Q.    E  E  E    E  E  Q.    E  E  E
|----------------------|----------------------|
|----------------------|----------------------|
|----------------------|----------------------|
|-11-12-14----14-12-11-|----------------------|
|----------------------|-14-16-17----17-16-14-|
|----------------------|----------------------|


   E  E  Q.    E  E  E   E E  E  E   Q
|--5--7--9-----9--7--5-|-9--------------|
|----------------------|---9------------|
|----------------------|-----10---------|
|----------------------|--------11------|
|----------------------|------------11--|
|----------------------|----------------|
|
|  E  E  Q.    E  E  E   E E  E  E   Q
|----------------------|-----------^-9--|
|----------------------|-----------^-9--|
|----------------------|-----------^10--|
|----------------------|--------11-^11--|
|-12-14-16----16-14-12-|---8-11---------|
|----------------------|-9--------------|


  E E Q  Q  Q    Q  E E E E Q    E E Q  Q  Q    E E Q  Q  Q
|-2-4-5--7--5--|-0--2-0--------|--------------|--------2--0-|
|--------------|--------3-2-0--|-2-3-2--0-----|-0-2-3-------|
|--------------|---------------|-----------2--|-------------|
|--------------|---------------|--------------|-------------|
|--------------|---------------|--------------|-------------|
|--------------|---------------|--------------|-------------|
|
| E E Q  Q  Q    Q  E E E E Q    E E Q  Q  Q    E E Q  Q  Q
|--------------|---------------|--------------|-------------|
|--------------|---------------|--------------|-------------|
|--------4-----|---------------|--------------|-------------|
|-4-6-7-----7--|----4----------|--------------|--------4----|
|--------------|-7----7-5-4----|-4-5-4--------|---4-5-----7-|
|--------------|------------7--|--------7--5--|-7-----------|


                                                                      T
  E E Q   Q      Q     Q   E E E E Q     E E Q   Q   Q     E E  H     H
|-2-4-5---5tr7---5---|-0---2-0---------|-----0---4---7---|-5-4--5----17---|
|--------------------|---------3-2-0---|-2-3-------------|----------------|
|--------------------|-----------------|-----------------|----------------|
|--------------------|-----------------|-----------------|----------------|
|--------------------|-----------------|-----------------|----------------|
|--------------------|-----------------|-----------------|----------------|
|
| E E E E E    E E E   E E E E E E E E   E E E E E E E E   E E  W
|--------------------|-----------------|-----------------|-----^5---------|
|--------------------|-----------------|-----------------|-----^5---------|
|---------4----------|-----------------|-------------4---|-----^6---------|
|-4-6-7----------7---|-----4-----------|---------6-----6-|-----^7---------|
|-------7------7---7-|-7-----7-5-4-----|-4-5-7-----7-----|-0-4------------|
|--------------------|---5---------7-0-|-------5---------|----------------|




--------------------------------------------------------------------------------


Duration Legend
---------------
W - whole; H - half; Q - quarter; E - 8th; S - 16th; T - 32nd; X - 64th; a - acciaccatura
+ - note tied to previous; . - note dotted; .. - note double dotted
Uncapitalized letters represent notes that are staccato (1/2 duration)
Irregular groupings are notated above the duration line
Duration letters will always appear directly above the note/fret number it represents the
duration for.  Duration letters with no fret number below them represent rests.  Multi-
bar rests are notated in the form Wxn, where n is the number of bars to rest for.  Low
melody durations appear below the staff

Tablature Legend
----------------
 h   - hammer-on
 p   - pull-off
 b   - bend
 pb  - pre-bend
 r   - bend release (if no number after the r, then release immediately)
 /\  - slide into or out of (from/to "nowhere")
 s   - legato slide
 S   - shift slide
 - natural harmonic
[n]  - artificial harmonic
n(n) - tapped harmonic
 ~   - vibrato
 tr  - trill
 T   - tap
 TP  - trem. picking
 PM  - palm muting
\n/  - tremolo bar dip; n = amount to dip
 \n  - tremolo bar down
 n/  - tremolo bar up
/n\  - tremolo bar inverted dip
 =   - hold bend; also acts as connecting device for hammers/pulls
 <> - volume swell (louder/softer)
 x   - on rhythm slash represents muted slash
 o   - on rhythm slash represents single note slash

Misc Legend
-----------
 |  - bar
||  - double bar
||o - repeat start
o|| - repeat end
*|  - double bar (ending)
 :  - bar (freetime)
 $  - Segno
 &  - Coda
Tempo markers -  = BPM(8/16=s8/s16), where s8 = swing 8ths, s16 = swing 16ths

comments
We did not receive enough feedback on this tab! Please rate:
print report bad tab
1 2 3 4 5
I want to post or [tab]
guest
You may want to rate the tab now too:
select rating
Please do not post tabs as comments. Select "correction" instead!