Oops, an error
Loading. Please wait.

Village On The Sand intro tab

version 1
version 1

Intro

Interactive

1,348 views 1 this week
3 commentsread comments
1 2 3 4 5
3 more votes to show rating
add to favorites
×
Save as Personal and add changes to this tab that will be seen only by you. Learn more ›
×
You can save this tab as Personal to edit and correct it or add notes. All changes will be seen only by you. Learn more »
launch autoscroll
font size
0
reset
how to read this tab
guitar tuner
edit
Autoscroll
slow
fast
+/-
esc
set tempo
stop
Difficulty
All it basically is is this, but I thought I'd post it as it frustrated me to find it...

|-----------------------------|-----------------|
|-----------------------------|-----------------|
|-----------------------------|-----------------|
|-------0---------------------|-------0---------|
|-0-2-3----2-0----0-2-0----0--|-0-2-3---2-0---0-|
|---------------3--------3----|-------------3---|


|-----------------------------|-----------------|
|-----------------------------|-----------------|
|-----------------------------|-------------0-2-|
|-------0---------------------|-------0-0-2-----|
|-0-2-3----2-0----0-2-0----0--|-0-2-3-----------|
|---------------3--------3----|-----------------|

PS blackmore's night are amazing!

            
            
Suggest correction
Creating personal tab
Creating personal tab
You can edit any tab online and save it as your Personal.

You can edit, replace or remove any tab part or add personal notes – all changes will be seen only by you.

Personal tabs can be accessed anytime from any device, even offline.
Learn more »
Give kudos to tab author, rate the tab!
1 2 3 4 5
comments
print report bad tab
3 comments total.
0 reply
Nagasherion 146 Jun 25, 2006 12:44 AM

Hooray for Richtie Blackmore! and well done on the tab

0 reply
Funkicker 10 Jun 28, 2006 04:36 AM

blackmore's night is amazing, but i'm afraid you made a little mistake (at least that's what i hear) what i changed is a little blues lick instead of the straight melody you posted (as the violin plays it) and of no matter, i play the 4th note (D) on the 5th string

|-------------------------------|-------------------|
|-------------------------------|-------------------|
|-------------------------------|-------------------|
|-------------------------------|-------------------|
|-0-2-3-5--0p2h0----0-2-0----0--|-0-2-3-5-0h2p0---0-|
|-----------------3--------3----|---------------3---|


|-------------------------------|-------------------|
|-------------------------------|-------------------|
|-------------------------------|-------------------|
|-------------------------------|-------------5-5/7-|
|-0-2-3-5--0h2p0----0-2-0----0--|-0-2-3-5-5/7-------|
|-----------------3--------3----|-------------------|

0 reply
Funkicker 10 Jun 28, 2006 04:37 AM

oh and i took the ending with slides

guest
Wanna post a correction for this tab? Suggest correction