Oops, an error
Loading. Please wait.

Waiting Just For You Bass Tab

377 views 1 this week
no commentswrite comment
1 2 3 4 5
3 more votes to show rating
add to favorites
launch autoscroll
font size
0
reset
guitar tuner
Autoscroll
slow
fast
+/-
esc
set tempo
stop
Help us to improve Ultimate-Guitar.com Take our survey!
×
+++++++++++++++++++++++++++++++++++++++++++
| Blackmore's Night- Waiting Just For You |
+++++++++++++++++++++++++++++++++++++++++++

Tuning: EADG

Intro
1.
G|--------------------------------------------------------|
D|--------------------------------------------------------|
A|-3~----2~----0~----------------------3~-----------3~----|
E|-------------------3~----1~----3~------------1/3~-------|

Verse
"They say that its always darkest right before the dawn..."
2.
G|-------------------------------------------|
D|-------------------------------------------|
A|-3~----2~----0~---------3-2-0~-------2~----|
E|-------------------3~----------3~----------|

"They say that I must be strong just to carry on..."
3.
G|-----------------------------------------------------------|
D|-----------------------------------------------------------|
A|-3~--3-2~----0~----------------------3~-----------3~-------|
E|----3--------------3~----1~----3~------------1/3~--------3-|

"But they dont know that I would wait my whole lifetime through..."
4.
G|----------------------------------------------|
D|----------------------------------------------|
A|-3~----2~----0~---------3-2-0~-------2~-------|
E|-------------------3~----------3~---3-------3-|

"Because you know, my love, that I'd be waiting just for you..."
5.
G|-----------------------------------------------------------|
D|-----------------------------------------------------------|
A|-3~----2~----0~----------------------3~-----------3~-------|
E|-------------------3~----1~----3~------------1/3~--------3-|

Chorus
"There you stood, amazing shining for the whole world to see..."
6.
G|-------------------------------------------|
D|-------4~----5~----3~----------------5~----|
A|-3~---------------------3-2-0~-------------|
E|-------------------------------3~----------|

"And I knew an angel had been sent to watch over me..."
7.
G|-----------------------------------------------|
D|-------------5~----3~--------------------5~----|
A|-3~----5~---------------3-2-0~-----------------|
E|-------------------------------3~-------3------|

Verse
"So I'll be here waiting..."
8.
G|-----5-4~----------------------------------|
D|----5--------------------------------------|
A|-3~----------0~---------3-2-0~-------2~--2-|
E|-------------------3~----------3~---3---3--|

"Because I know, my love, that you do love me too..."
9.
G|-----5-4~----------------------------------|
D|----5--------------------------------------|
A|-3~----------0~----------------------3~----|
E|-------------------3~----1~----3~----------|

Break
10.
G|---------------------------------|
D|---------------------------------|
A|---------------------------------|
E|-111~----111~----333~----333~----|

Verse
"They say that its always darkest right before the dawn..."
11.
G|----------------------------------------------------------|
D|----------------------------------------------------------|
A|-3-3333-2-2222-0-0000--------3-332-220-0000--------2-2222-|
E|----------------------3-3333----------------3-3333--------|

"They say that I must be strong just to carry on..."
12
G|------5-4------------------------------------------------|
D|-----5---------------------------------------------------|
A|-3~-------2222-0-0000----------------------3-3333-3-3333-|
E|----------------------3-3333-1-1111-3-3333---------------|

"But they dont know that I would wait my whole lifetime through..."
13.
G|------------------------------------------------------------|
D|--------------------------------------------------0-5-0---0-|
A|-3-3333-2-2222-0-0000--------3-332-220-0000-----------------|
E|----------------------3-3333----------------3-333-------3---|

"Because you know, my love, that I'd be waiting just for you..."
14.
G|---------------------------------------------------------|
D|---------------------------------------------------------|
A|-3-3333-2-2222-0-0000----------------------3-3333-3-3333-|
E|----------------------3-3333-1-1111-3-3333---------------|

Chorus
"There you stood, amazing shining for the whole world to see..."
15.
G|---------------------------------------------------------|
D|------------4-45-5555-3-3333-----------------------------|
A|-3-3333-5-55-5---------------3-332-220-0000--------2-0-2-|
E|--------------------------------------------3-3333--3----|

"And I new an angel had been sent to watch over me..."
16.
G|---------------------------------------------------------|
D|-----5------4-45-5555-3-3333-----------------------------|
A|-3-33-3-5-55-5---------------3-332-220-0000--------------|
E|--------------------------------------------3~---33~-----|

Verse
"So I'll be here waiting..."
17.
G|-------------------------------------------|
D|-------------------------------------------|
A|-3~----2~----0~---------3-2-0~-------2~----|
E|-------------------3~----------3~----------|

"Because I know, my love, that you do love me too..."
18.
G|-----------------------------------------------------------|
D|-----------------------------------------------------------|
A|-3~----2~----0~----------------------3~-----------3~-------|
E|-------------------3~----1~----3~--------------------------|

Lyrics:

They say that it's always darkest right before the dawn
They say that I must be strong just to carry on
But they don't know that I would wait my whole lifetime through
Because you know, my love, that I'd be waiting just for you…

There you stood, amazing shining for the whole world to see
And I knew an angel had been sent to watch over me…

So I'll be here waiting, hoping, dreaming, loving you
Because I know, my love, that you do love me too...

+++++++++++++++++++++++++++++++++
| RaiLeff                       |
| Underground__Dora@Hotmail.Com |
+++++++++++++++++++++++++++++++++
Suggest correction
Give kudos to tab author, rate the tab!
1 2 3 4 5
comments
print report bad tab
guest
You may want to rate the tab now too:
select rating
Wanna post a correction for this tab? Suggest correction