Oops, an error
Loading. Please wait.

Hold On chords

64 views 1 this week
no commentswrite comment
1 2 3 4 5
2 more votes to show rating
add to favorites
×
Save as Personal and add changes to this tab that will be seen only by you. Learn more ›
×
You can save this tab as Personal to edit and correct it or add notes. All changes will be seen only by you. Learn more »
launch autoscroll
font size
0
reset
transpose
0
reset
display chords
guitar tuner
edit
Autoscroll
slow
fast
+/-
esc
set tempo
stop
Strumming
There is no strumming pattern for this song yet. and get +5 IQ
Tuning: Drop C

[Chords]

[Verse]
    Dm       F       C       A#
d|---5-------8-------3-------1----|
A|---6-------10------5-------3----|
F|---7-------10------5-------3----|
C|---7-------10------5-------3----|
G|---5-------8-------3-------1----|
C|--------------------------------|

[Chorus]
    Dm       F       C       A#
d|---1---------------0-------1----|
A|---3---------------1-------3----|
F|---2-------2-------0-------3----|
C|---0-------3-------2-------3----|
G|---0-------3-------3-------1----|
C|---0-------3--------------------|

[Intro]
   Dm       F         C        A#    (x4
)
d|------------------|----------------|
A|--------8---------|-10----13-------|
F|-7h9------7-------|----------12----|
C|------------------|----------------|
G|------------------|----------------|
C|------------------|----------------|

[Verse]
Dm              F
 You fucked up   but it will be okay
C               A#
 We all make     our mistakes someday
Dm             F                        C
 If we fail,    at least we know we've tried
A#
I swear I have tried

[Chorus]
   Dm                  F
My father said take it easy son
          C
There are those days in life
     A#
You have to stay strong
Dm           F
   Keep your head up high
        C                 A#
There's always a reason to fight
         Dm     F        C   A#
so hold on..       hold on..
      Dm    F          C   A#
hold on..        hold on..

[Verse]
Dm         F                            C
 I wish I    could have been there for you
           A#
Like you al..ways have been there for me
Dm         F                         C
 I forgot    when you and mum split up
            A#
I took off,    I didn't give a fuck
Dm             F
 But I cared     as much as i could care
C                A#
 Couldn't move,    I was shocked and stared
Dm             F                      C
 At our house    I watched it fall apart
        A#
Damage done, no restart

[Chorus]
   Dm                  F
My father said take it easy son
          C
There are those days in life
     A#
You have to stay strong
Dm           F
   Keep your head up high
        C                 A#
There's always a reason to fight
         Dm     F        C   A#
so hold on..       hold on..
      Dm    F          C   A#
hold on..        hold on..

[Instrumental]
   Dm            F              C            A#    (x2
)
d|----------------------------|------------------------|
A|----------------------------|-8h10p8h10--------------|
F|-9h10p9h10------------7-----|--------------10----9---|
C|---------------10-----------|------------------------|
G|----------------------------|------------------------|
C|----------------------------|------------------------|

Dm            F
 I fucked up   but it will be okay
C               A#
 We all make     our mistakes someday
Dm             F                        C
 If we fail,    at least we know we've tried
    A#
For Fuck's sake I've tried

[Chorus]
   Dm                  F
My father said take it easy son
          C
There are those days in life
     A#
You have to stay strong
Dm           F
   Keep your head up high
        C                 A#
There's always a reason to fight
         Dm     F        C   A#
so hold on..       hold on..
      Dm    F          C   A#
hold on..        hold on..

[Outro]
Dm

            
            
Suggest correction
Creating personal tab
Creating personal tab
You can edit any tab online and save it as your Personal.

You can edit, replace or remove any tab part or add personal notes – all changes will be seen only by you.

Personal tabs can be accessed anytime from any device, even offline.
Learn more »
Give kudos to tab author, rate the tab!
1 2 3 4 5
comments
print report bad tab
guest
You may want to rate the tab now too:
select rating
Wanna post a correction for this tab? Suggest correction