Oops, an error
Loading. Please wait.

This Towns Disaster Tab

355 views 1 this week
no commentswrite comment
1 2 3 4 5
excellent!
x 1
add to favorites
launch autoscroll
font size
0
reset
how to read this tab
guitar tuner
Tab Pro tools
  • play this tab
  • loop segment
  • change instrument
  • show fretboard
  • metronome
Autoscroll
slow
fast
+/-
esc
set tempo
stop
Contributor
Difficulty
novice
Well it isn't whole song but well.. its a part of it

By:Fredrik/Devilholk(deadcrossbone@hotmail.com)


Intro figure out the rythm urself.
E-4-----------|
B-5-----2-----|
G-6-9-4-2-----|
D-6-9-4-2-----|
A-4-7-2-0-----|
E-------------|

Verse.
Gtr 1
E------------------4-------------|
B------------------5-------------|
G-9----------------6-4-----------|
D-9----------------6-4-----------|
A-7----------------4-2-----------|
E--------------------------------|

Gtr 2
(Plays after each E)
E---------------|
B---------------|
G--9---------9--|
D---9-11-9-11---|
A---------------|
E---------------|


Ref
Gtr 1
E-4------------|
B-5-----2------|
G-6-9-4-2------|
D-6-9-4-2------|
A-4-7-2-0------|
E--------------|

Gtr 2
E-4------------|
B-5-5----2-----|
G-6-4-4-2------|
D-6-2-4-2------|
A-4---2-0------|
E--------------|


Great Band!!www.blackpoollights.com
comments
We did not receive enough feedback on this tab! Please rate:
print report bad tab
1 2 3 4 5
I want to post or [tab]
guest
You may want to rate the tab now too:
select rating
Please do not post tabs as comments. Select "correction" instead!