Oops, an error
Loading. Please wait.

Instrumental Tab

version 2
version 2

Whole song

443 views 1 this week
no commentswrite comment
1 2 3 4 5
3 more votes to show rating
add to favorites
launch autoscroll
font size
0
reset
how to read this tab
guitar tuner
Autoscroll
slow
fast
+/-
esc
set tempo
stop
Help us to improve Ultimate-Guitar.com Take our survey!
×
Blackstar
Instrumental


110bpm

Intro / chorus

e|-----------------------------|-----------------------------|
B|-----------------------------|-----------------------------|
G|--------------------------3~~|-----------------------------|
D|----5---5-----5~-5-5--3h5----|----5---5-----5~--3----------|
A|-----------------------------|--------------------5-4-3----|
E|-3-----3---3-----------------|-3-----3---3--------------6--|
                     .  .                         . . . .

e|-----------------------------|-----------------------------|
B|-----------------------------|-----------------------------|
G|--------------------------3~~|-----------------------------|
D|----5---5-----5~-5-5--3h5----|----5---5-----5--/6-----5--3-|
A|-----------------------------|--------------3--/4-----3--1-|
E|-3-----3---3-----------------|-3-----3---3-----------------|

                                               

Verse

e|-----------------|-----------------|-----------------|-------------|
B|-----------------|-----------------|-----------------|-------------|
G|-----------------|-----------------|-----------------|-------------| x3
D|-----------------|-5-4-3---4-3-----|-----------------|-3-------3---|
A|-----------------|-------5-----5-4-|-----------------|---5-4-3-1---|
E|-3-3-3-3-3-3-3-3-|-----------------|-3-3-3-3-3-3-3-3-|-------------|
   . . . . . . . .   . . . . . . . .   . . . . . . . .   . . . .

e|-----------------|-----------------|-----------------|-------------|
B|-----------------|-----------------|-----------------|-------------|
G|-----------------|-----------------|-----------------|-------------|
D|-----------------|-5-4-3---4-3-----|-----------------|-3-------3---|
A|-----------------|-------5-----5-4-|-----------------|---5-4-3-1//-|
E|-3-3-3-3-3-3-3-3-|-----------------|-3-3-3-3-3-3-3-3-|-------------|
   . . . . . . . .   . . . . . . . .   . . . . . . . .   . . . .



Chorus tail 1

e|-----------|------------|
B|-----------|------------|
G|-----------|------------|
D|-3---------|---------10-|
A|-1----5--8-|-10----8-8--|
E|------3--6-|-8-----6----|


Chorus tail 2

e|-----------|------------|
B|-----------|------------|
G|-----------|------------|
D|-3---------|------------|
A|-1----5--8-|-10----8-7--|
E|------3--6-|-8-----6-5--|


Chorus variation

e|-----------------------------|
B|-----------------------------|
G|-------------------------3~--|
D|----5---5--------5-3p5-5---5-|
A|-----------------------------|
E|-3----3----------------------|



Middle 1

e|-----------------|---------------|-----------------|---------------|
B|-----------------|---------------|-----------------|---------------|
G|-----------------|---------------|-----------------|---------------| Guitar 1
D|-5-4-3---4-5-----|-3-------------|-5-4-3---4-5-----|-3-------------|
A|-------5-----5-4-|---5-4-3-------|-------5-----5-4-|---5-4-3-------|
E|-----------------|---------6-3---|-----------------|---------1/2---|
 | . . . . . . . .   . . . .         . . . . . . . .   . . . .
 |
e|-----------------|---------------|-----------------|---------------|
B|-----------------|---------------|-----------------|---------------|
G|-----------------|---------------|-----------------|---------------| Guitar 2
D|-----------------|---------------|-----------------|---------------|
A|-----------------|---------8\5---|-5---------------|---------3/4---|
E|-----------------|---------6\3---|-3---------------|---------1/2---|


e|-----------------|---------------|-----------------|---------------|
B|-----------------|---------------|-----------------|---------------|
G|-----------------|---------------|-----------------|---------------| Guitar 1
D|-5-4-3---4-5-----|-3-------------|-5-4-3---4-5-----|-3-------------|
A|-------5-----5-4-|---5-4-3-------|-------5-----5-4-|---5-4-3-------|
E|-----------------|---------6-3---|-----------------|---------1/2---|
 | . . . . . . . .   . . . .         . . . . . . . .   . . . .
 |
e|-----------------|---------------|-----------------|---------------|
B|-----------------|---------------|-----------------|---------------|
G|-----------------|---------------|-----------------|---------------| Guitar 2
D|-----------------|---------------|--------------------|
A|-5---------------|---------------|-------------x\\-|-\\\\\\\\\\\\\-|
E|-3---------------|---------------|-------------x\\-|---------------|
   
e|-----------------|---------------|-----------------|---------------|
B|-----------------|---------------|-----------------|---------------|
G|-----------------|---------------|-----------------|---------------| Guitars 1 & 2
D|-5-4-3---4-5-----|-3-------------|-5-4-3---4-5-----|-3-------------|
A|-------5-----5-4-|---5-4-3-------|-------5-----5-4-|---5-4-3-------|
E|-----------------|---------6-3---|-----------------|---------1/2---|
   . . . . . . . .   . . . .         . . . . . . . .   . . . .


Middle 2

e|-----------------|------------------------|
B|-----------------|------------------------|
G|-----------------|------------------------| Guitar 1
D|-----------------|-3--5---3------3--------|
A|-5---------------|-----------6-------6--5-|
E|-3---------------|------------------------|
 | 
e|-----------------|------------------------|
B|-----------------|------------------------|
G|-----------------|------------------------| Guitar 2
D|-----------------|------------------------|
A|-5---------------|-5--6---5--3---5---3----|
E|-3---------------|----------------------6-|


[Note tempo is lowered slightly from the final verse to the end of the song.]


End

e|-----------|------------|-----------|------------|
B|-----------|------------|-----------|------------|
G|-----------|------------|-----------|------------|
D|-3---------|------------|-----------|------------|
A|-1----5--8-|-10----8-7--|-8----5--8-|-10----8-7--|
E|------3--6-|-8-----6-5--|-6----3--6-|-8-----6-5--|

e|-----------|------------|-----------|-----------|-6--------|...|-6\-------|
B|-----------|------------|-----------|-----------|-6--------|...|-6\-------|
G|-----------|------------|-----------|-----------|-4--------|...|-4\-------|
D|-----------|------------|-----------|-----------|-3--------|...|-3\-------|
A|-8----5--8-|-10----8-7--|-5----5----|-5----5----|-5--------|...|-5\-------|
E|-6----3--6-|-8-----6-5--|-3----3----|-3----3----|-3--------|...|-3\-------|


[Now let's kill that fucking band]

I have had the same old dream, always, lately,
And I don't wanna dream no more,
I have had the same recurring dreams lately,
And what I've dreamt I'm not quite sure,
Yeah, I'm not quite sure.

Recurring dreams.

All that we see,
All that we see or seem,
Is just a dream.
Just a dream within a...

I have had the same old dream, always, lately,
Day in, day out, day after day,
I had the same old dream, again, today,
And I don't want to dream again,
Dream again.

Recurring dreams.

All that we see,
All that we see or seem,
Is just a dream.
Just a dream within a...
Dream.

I have had the same old dream, always, lately,
Day in, day out, day after day,
I have had the same recurring dreams lately,
And I don't want to dream again,
Dream again.

Recurring dreams.

All that we see,
All that we see or seem,
Is just a dream.
Just a dream within a...
Dream.

All that we see,
All that we see or seem,
Is just a dream.
Just a dream within a...
Dream.

[Fuck you everybody. Goodnight.]
Suggest correction
Give kudos to tab author, rate the tab!
1 2 3 4 5
comments
print report bad tab
guest
You may want to rate the tab now too:
select rating
Wanna post a correction for this tab? Suggest correction