Oops, an error
Loading. Please wait.

Denim Patches tab

1,504 views 6 this week
1 commentread comment
1 2 3 4 5
x 4
add to favorites
×
Save as Personal and add changes to this tab that will be seen only by you. Learn more ›
×
You can save this tab as Personal to edit and correct it or add notes. All changes will be seen only by you. Learn more »
launch autoscroll
font size
0
reset
how to read this tab
guitar tuner
edit
Autoscroll
slow
fast
+/-
esc
set tempo
stop
Standard tuning,
band page-http://blaenavon.bandcamp.com/

 capo on 5th
tab relative to capo

tabbed by macdca07 (21/08/13)

intro/verse
e-------------------------------|
B------------0-------------0----|
G------------0-------------0----|   x2
D--------2-----2-------2-----2--|
A--0h2-2---2-----2h3-3---3------|
E-------------------------------|

e---------------------------------|
B----------0----------------------|
G------2---2-2-0--0h2-2/4-4-/2-p0-|
D--0h2---2------------------------|
A---------------------------------|
E---------------------------------|


chorus

e-------------------------------------------------------------------|
B----------------0---------------------------------------0-------0--|
G--------0-------0---------------------------------------0----------|
D----2-------2-------2---2---2---2---2---2---2---2---2-------2------|
A-------------------------------------------------------------------|
E--0---0---0---0---0---0---0---2---3---3---3---3---3---3---3---3----|


e------------------------------------------------------------------|
B--------0-------0-------0-------0-------0-------0-------0-------0-|
G----2---2---2---2---2---2---2---2---0---0---0---0---0---0---0---0-|
D----2-------2-------2-------2-------2-------2-------2-------2-----|
A--0---0---0---0---0---0---0---0---0---0---0---0---0---0---0---0---|
E------------------------------------------------------------------|


break down

.   play staccato on the chords
e-------------------------------------------------------|
B--0-0-0-0-0--0-0-0-0-0--0-0-0-0-0--0-0-0---------------|
G--0-0-0-0-0--0-0-0-0-0--2-2-2-2-2--0-0-0h2-2/4-4\2-2p0-|
D--2-2-2-2-2--2-2-2-2-2--2-2-2-2-2--2-2-----------------| (repeat)
A--3-3-3-3-3--2-2-2-2-2--0-0-0-0-0--0-0-----------------|
E-------------------------------------------------------|


outro

e--------------------------------------------------------------------------|
B--0000000000000000--0000000000000000--0000000000000000--0000000000000000--|
G--0000000000000000--0000000000000000--2222222222222222--0000000000000000--|
D--2222222222222222--2222222222222222--2222222222222222--2222222222222222--|
A--3333333333333333--2222222222222222--0000000000000000--0000000000000000--|
E--------------------------------------------------------------------------|

(over the top of ^ part)
e-----------|
B--3--1--0--|
G-----------|
D-----------|
A-----------|
E-----------|

song structure = intro-verse-chorus-verse-chorus-breakdown-outro-verse
Suggest correction
Creating personal tab
Creating personal tab
You can edit any tab online and save it as your Personal.

You can edit, replace or remove any tab part or add personal notes – all changes will be seen only by you.

Personal tabs can be accessed anytime from any device, even offline.
Learn more »
comments
print report bad tab
1 comment total.
0 reply
grvcxshxphxrd 10 Apr 21, 2017 05:35 AM

👍

guest
Wanna post a correction for this tab? Suggest correction