Oops, an error
Loading. Please wait.

Soon As I Get Home Tonight Chords

73 views 12 this week
no commentswrite comment
1 2 3 4 5
2 more votes to show rating
add to favorites
launch autoscroll
font size
0
reset
transpose
0
reset
simplify chords
display chords
guitar tuner
Autoscroll
slow
fast
+/-
esc
set tempo
stop
Help us to improve Ultimate-Guitar.com Take our survey!
×
Author
Difficulty
Tuning
intermediate
E A D G B E
Solomon David, the band's guitarrist and vocalist, gave me these chords.
So, there's no mistakes in it. Enjoy :D

[Intro]
   Cm   F   A#7  Gm                          Cm   F F*  A#7  D#7
e|--8---2---6----3----------------------------8---2\1---6---11-----|
B|--8---2---X----3----------------------------8---2\1---X---X------|
G|--8---3---7----3----------------------------8---3\2---7---12-----|
D|--10--4---7----3----------------------------10--4\3---7---12-----|
A|--10--4---6----5--10-10-8-8-----------------10--4\3---6---11-----|
E|--8---2---X----3------------11-11-10-10-----8---2\1---X---X------|

    A#7  D#7
e|---6---11-----|
B|---X---X------|
G|---7---12-----|
D|---7---12-----| x2
A|---6---11-----|
E|---X---X------|

[Verses]

Cm              F
If you ever been there
A#7              Gm
I love you with no spare
Cm                F/F*
I'll tell it to the stars

A#7              D#7
A#7              D#7

Cm              F
So when I get sad
A#7                Gm
I love you that's why
Cm                F/F*
I'll tell it to the stars
A#7              D#7
Soon as I, get home tonight
A#7              D#7
A#7              D#7
Soon as I, get home tonight
A#7              D#7

[Interlude]
   Cm   F   A#7  Gm                          Cm   F F*  A#7  D#7
e|--8---2---6----3----------------------------8---2\1---6---11-----|
B|--8---2---X----3----------------------------10--4\3---X---X------|
G|--8---3---7----3----------------------------10--4\3---7---12-----|
D|--10--4---7----3----------------------------8---3\2---7---12-----|
A|--10--4---6----5--10-10-8-8-----------------8---2\1---6---11-----|
E|--8---2---X----3------------11-11-10-10-----8---2\1---X---X------|

    A#7  D#7
e|---6---11-----|
B|---X---X------|
G|---7---12-----|
D|---7---12-----| x2
A|---6---11-----|
E|---X---X------|

[Verses]

Cm              F
So when you get sad
A#7                Gm
I love you that's why
Cm                F/F*
I'll tell it to the stars
A#7              D#7
Soon as I, get home tonight
A#7              D#7
A#7              D#7
Soon as I, get home tonight
A#7                           D#7

Suggest correction
Give kudos to tab author, rate the tab!
1 2 3 4 5
comments
print report bad tab
guest
You may want to rate the tab now too:
select rating
Wanna post a correction for this tab? Suggest correction