Oops, an error
Loading. Please wait.

Guitar Moves Episode 2 - Ending Piece tab

256 views 21 this week
2 commentsread comments
1 2 3 4 5
x 4
add to favorites
×
Save as Personal and add changes to this tab that will be seen only by you. Learn more ›
×
You can save this tab as Personal to edit and correct it or add notes. All changes will be seen only by you. Learn more »
launch autoscroll
font size
0
reset
how to read this tab
guitar tuner
edit
Autoscroll
slow
fast
+/-
esc
set tempo
stop
About this tab version
Difficult fingerstyle work, not very fast but still requires pretty good technique. Refer to this link for exact timing: https://www.youtube.com/watch?v=wlskErEWuRI. Was this info helpful? Yes No
The video is here: https://youtu.be/wlskErEWuRI?t=9m39s

Blake uses his left hand thumb rather than a barre for a quite a few of the bass notes, that may make it 
easier for you. Good luck and have fun.

e|-----------------7-------5-------------------|
B|--0------------------------------------------|
G|---------5-----------------------------------|
D|---------------------------------------------|
A|-----------------------0--------7------------|
E|------------------------------------8---7----|

e|-----------------------------------------------------|
B|---6--7--8--10--12--13--12----10=====================|
G|---7--8--9--11--11----------------9==================|
D|------------------------------10=========10==========|
A|---8==/==/==/----0-------0---------------------------|
E|---------0--------------------------8==========8=====|

e|-----------------12\---8--8====================8--8------------|
B|==/13------15---------10--8===================10--8------9--8--|
G|==-------------------------------------------------------9--7--|
D|==/----14------------------------------------------------------|
A|----0-------------------------10----------10---------10--------|
E|==---------------------8----------8---12-------8---------7-----|

e|---------------------------------------------------------------|
B|-----6-----5--3------------------------------------------------|
G|--7--4-----5--1------2--------2--0---------------2---4--2--0---|
D|--9---------------------3--------2---------------2---4--2--0--2|
A|-----0---------------------0--3-----3------------2------------2|
E|--------------1---------------------3--0-1h2-0-----------------|

e|---------------------------------------------------------------|
B|------------------------0--1--0--1--3--------------------------|
G|--2----0-------------2--2--2--0--------2----0------------------|
D|--2---------------3--3--------0--2--3--2-----------------------|
A|------------3-----3-----------------------------2-------------0|
E|--3------------1-----------------------0-----------0--1-2-3-4--|

e|---------5------------------------4--5--7======----------------|
B|---0-------------------------------------------8--8---8---7//8-|
G|------5---------------------------4--5--7======9--9---9---8//9-|
D|---------------------------------------------------------------|
A|--------------6g7-6g7-6g7-0-------5--7--9=====10-----10---9//--|
E|--------------------------------------------0------------------|

e|------------------12--10--10----8--8--------------------------8|
B|-----7//8--9--12---------------------------10--------------10--|
G|-----8//9--9---9---9------------9--9---------------9-----9-----|
D|----------------------------------------10-----10--------------|
A|-10-------11--------------------------0------------------------|
E|------------------------------------------------------8--------|

e|----8----10--8--6-------6--8\6---4------------------------0--2-|
B|-8-----------------6----------------4---------------2--3-------|
G|----8--------8--7----7--6--------------5----5-------4--3-----2-|
D|-8-------------------8-------------------6--------2------------|
A|------------------------6------------------------------------2-|
E|-------8--------6-------------------4----------2---------------|

e|------4-5-7----------------------5--5---4-5-7----7--7----------|
B|----0--------------5----------9--7--7---6-7-9----9--9----------|
G|----------------4----------------6------------------------10---|
D|-1-----------6-----6--------9-9--7--7---6-7-9----9--9----------|
A|------------------------------------------------------9/11-----|
E|----------0---------------0-------------------9----------------|

e|----------------7--5--4/9--12--------------------12------7-5==/|
B|-------------9-----------------10-----------10-----------9-7==/|
G|----------------------------9-------9------9----------9--8-6==/|
D|---------11--9-----7--6/------11--------------11-----11--9-7==/|
A|10g11-------------------0----------------0---------------------|
E|------9------7--------------------9--12-------------9----------|

e|//9---9----------------------------------------------------4--7|
B|/----10-------------------------------------------------0------|
G|/----11-----------------------11------11----10-----------------|
D|/11---------------9--11//13-------13-------------------6-------|
A|---------------9---------------9-------------------------------|
E|--------7--11-------------0--------9--11--9--7--5--4-------4--4|

e|------------0--------5g7-5-4//7-------------------9------------|
B|--0---0------0-------7g9-7-6//9--9-------------9-----9---------|
G|-----------4----4-----------------------10---10-----------10---|
D|-------------6-----6-7g9-7-6//9------------13----------13----9-|
A|---------7-------------------------9g11------------------------|
E|----7-------------------------9-------------------9------------|

e|-7-5-4///9--12-------------------9g11\9--7------------------7--|
B|-9-7-5//--------10---10---------7-----------10--9--7--5--------|
G|--------------------9-----9------9g11\9--8---------------4-----|
D|---7-6//11------11-------------9----------------9--7--6--------|
A|---------------------------------------------------------------|
E|--------------------9--12--7--------------------------0--------|

e|--------0------------9---7--7---7---------7--------------------|
B|--5--5-----9--8--7-----------------10--9-----9-----5--------7--|
G|--4--6------------------------------------------6----------8-8-|
D|--------------8--7-------7-------------9-----------------------|
A|-----7---------------------------------------------------------|
E|--0--5-----------7---------------------0--------5-----9-7------|

e|----2--------------4--------------------------------5----------|
B|-4--------------------------------------------0--4-----4------9|
G|-4--------------------4--------------------4-----------4---4--9|
D|-------4-----------------2-----------------4--4------------6--9|
A|----------------------------------------6------------------7---|
E|-2-------4--5--4------0-----4--5--6--7--------2--------2-------|

e|------7-----0-----7-----9-11--7--9-11--12-------0-----7--------|
B|---5--5--5--0-----7-----7--7--7--7--7-------9---------5--------|
G|---6--6--6--------8-----8--8--8--8--8------9-9--------6--------|
D|---7-----7-----------9-----------9--------------0--------------|
A|--------------------------------------------11-----------------|
E|-5-------5-----7-----------7------------0----------5-----5--9--|

e|-------------------------0-----7-----------0-------------------|
B|---10--9--7--------------------------5-----------------3--4--5-|
G|-------8-----9--8--6--8--------------6-----6--5--------4-------|
D|----9--9--7--7--7--7--7-----------------------------4-----7--6-|
A|-------------------------------------7----------(2)------------|
E|7------------------------0--4-----5-----6-----6--7-------------|

e|-------------7-----4--7-----5----------------------------------|
B|-6--7//8--9--------------5--------9--7--7--7--------7h9h10--9--|
G|---------------------------------------------------------------|
D|-5--4-----------9--6-----7-----7--------7--------7-------------|
A|-------7-------------------------------------------------------|
E|----------7--------4-----5--------7-----7-----7-------------0--|

e|-------------4--------------7--9--11---------9--12--------12---|
B|----------5--------7-------7----------9--12--9---9----9----9---|
G|11--9\\6--------6--8------8----9--11--9---9----------9-----9---|
D|----9\\7--------7--9-----9-----7---9----------------9--9-------|
A|--(11)---------------------------------------------11----------|
E|----------5-----------7--------9--11-------------0-------------|

e|------------------------------------------0--------------------|
B|-------------------9----8--8--7--5----------------------9--8--7|
G|9---9---9--11--11-------------------6--4-----9---9--11---------|
D|9--11--10--10--10--9----8--8--7--7--7--6----11--10--10--9--8--7|
A|---------------------------------------------------------------|
E|---------------------------------------0-----------------------|

e|----0---------------------9---------16------------------------|
B|-5------------9--10--12-------------16------------------------|
G|-------9--11-----10--11--11---------13------------------------|
D|-6----11--10--9============---------13------------------------|
A|------------------------------------14------------------------|
E|--------------------------------0-----------------------------|
                  
                    
************************************

| =    Sustained note
| g    Grace note
| h    Hammer-on
| p    Pull-off
| /    Slide up
| \    Slide down 
| (x)  Optional, possibly easier note

************************************

            
            
Suggest correction
Creating personal tab
Creating personal tab
You can edit any tab online and save it as your Personal.

You can edit, replace or remove any tab part or add personal notes – all changes will be seen only by you.

Personal tabs can be accessed anytime from any device, even offline.
Learn more »
comments
print report bad tab
2 comments total.
+1 reply
jazzmastersash 10 Jun 17, 2017 01:43 PM

OMG! thank you so much1! i've been trying to figure this out myself by watching it 100000 times over and over. This makes it so much easier! Thank you!

guest
You may want to rate the tab now too:
select rating
Wanna post a correction for this tab? Suggest correction