Oops, an error
Loading. Please wait.

Itll All Work Out chords

11,698 views 126 this week
4 commentsread comments
1 2 3 4 5
x 11
add to favorites
×
Save as Personal and add changes to this tab that will be seen only by you. Learn more ›
×
You can save this tab as Personal to edit and correct it or add notes. All changes will be seen only by you. Learn more »
launch autoscroll
font size
0
reset
transpose
0
reset
display chords
guitar tuner
edit
Autoscroll
slow
fast
+/-
esc
set tempo
stop
Author
Strumming
There is no strumming pattern for this song yet. and get +5 IQ
Blake Mills - It'll all work out

watch this:

http://www.youtube.com/watch?v=3Pc5uZl-xWk


mute the strings slightly, I'm not to sure how he switches chords in the verse I 
part and still keeps rhythm in the bass notes, suggstions welcome

rhythm: thumb, down-up, thumb, down-up

Intro:


e|------1-----1------1----1---h1-----------|
B|------2-----2------2----0---h2-----------|
G|------1-----1------1----2---h1-----------|
D|------3-----3------3----3---3------------|
A|--4-------------4----------------4-------|
E|----------4-------------4----------------|


Verse part I

e|------1-----1------1-----1-h1-----1---|
B|------2-----2------2-----0-h2-----2---|
G|------1-----1------1-----2-h1-----1---|
D|------3-----3------3-----3-3------3---|
A|--4------------4---------------4------|
E|---------4------------4---------------|

Verse part II

e|----2----2------2----2-----|
B|----3----3------2----2-----|
G|----2----2------2----2-----|
D|----4----4------4----4-----|
A|-5----------4--------------|
E|------5------------2-------|

Chorus

e|---0-----2--0---0----0-------|
B|---2-----3--3---0---p2-------|
G|---2-----2--2---2----2-------|
D|---2------------2----2-------|
A|---0------------0----0-------|
E|-----------------------------|



I
West Valley, Mormon family  
with seven hungry mouths to feed
II                                         
that's how she leraned to raise my sister and me
voted nixon in the seventies

Chorus

it'll all work out
it'll all work out

I
my mother was the youngest child
no college education
wasn't ever her style but
II
she knew just how to make a quarterback smile

Chorus

it' would all work out
it'll all work out

I
my father loved us right
                                      II
stayed up at night trying to keep the checkbook tighter
than a ducks ass going down on waterslide
ohh i know he tried
became a victim of the mortgage spikes
collections calling every night since 1999
in ten more years you  think the interest rates decline

Chorus

it' ll all work out
it'll all work out
it'll all work out


I
the say go to college get you knowledge straighten up
with inherit desperation and the way it sounded
II
like you bet on it and now its seems the odds we're down
thank you dad I love you and I'll  make you proud
I'm sorry I didn't take the road you laid down

Chorus

it' ll all work out
it'll all work out
it' ll all work out

I
is that you're litter in the middle of the park
i must have been out of town for quite a little while
II
the stitches in youre arm must have healed by now
fuck that plummer if youre heat is still out
and don't be scared I know you can still throw down

Chorus
it' ll all work out
it'll all work out
it' ll all work out

I
I don't feel a speck of hate
really now I'm trying to get my story straight
II
when you called me from your car
when you were on your way with friend from san francisco
that you told me was gay, guess he was a closet straight

get it all out now

            
            
Suggest correction
Creating personal tab
Creating personal tab
You can edit any tab online and save it as your Personal.

You can edit, replace or remove any tab part or add personal notes – all changes will be seen only by you.

Personal tabs can be accessed anytime from any device, even offline.
Learn more »
comments
print report bad tab
4 comments total. Showing first comments.
0 reply
musiquarium 10 May 30, 2014 07:03 PM

With seven hungry mouths to feed

0 reply
clifwith1f 108 Jan 20, 2016 06:56 AM

Not to nitpick at the lyrics, but it's "West Valley, Mormon family"

+1 reply
DrLeonard 2,109 Jan 20, 2016 08:36 PM

haha, ok corrected that, thank you!

guest
You may want to rate the tab now too:
select rating
Wanna post a correction for this tab? Suggest correction