Oops, an error
Loading. Please wait.

Came Here To Forget Tab

version 1
version 1

Solo

37 views 9 this week
no commentswrite comment
1 2 3 4 5
3 more votes to show rating
add to favorites
launch autoscroll
font size
0
reset
how to read this tab
guitar tuner
Autoscroll
slow
fast
+/-
esc
set tempo
stop
Help us to improve Ultimate-Guitar.com Take our survey!
×
Author
[Solo]

e|----------------------------|------0--------------------------|
B|-12p9--9\7---7\5-----5/7----|---7-----7/9--5----------5----4~-|
G|----------------------------|---------------------------------|
D|----------------------------|--------------------4/6-----4----|
A|----------------------------|---------------------------------|
E|----------------------------|---------------------------------|

e|---------------------------------|-------------12--12~--------|
B|------5-5-5/7---7-7/9---9-9/12---|---12-12/14--14--14~--------|
G|-5/6-----------------------------|----------------------------|
D|---------------------------------|----------------------------|
A|---------------------------------|----------------------------|
E|---------------------------------|----------------------------|


************************************


| p   Pull-off
| /   Slide up
| \   Slide down
| ~   Vibrato


************************************
Suggest correction
Give kudos to tab author, rate the tab!
1 2 3 4 5
comments
print report bad tab
guest
You may want to rate the tab now too:
select rating
Wanna post a correction for this tab? Suggest correction