Oops, an error
Loading. Please wait.

Sure Be Cool If You Did Tab

version 1
version 1

Whole song

17,063 views 9 this week
no commentswrite comment
1 2 3 4 5
accurate
x 7
add to favorites
launch autoscroll
font size
0
reset
how to read this tab
guitar tuner
Tab Pro tools
  • play this tab
  • loop segment
  • change instrument
  • show fretboard
  • metronome
×
Best way to learn
"Sure Be Cool If You Did"
Autoscroll
slow
fast
+/-
esc
set tempo
stop
Contributor
Difficulty
intermediate
Blake Shelton, "Sure Be Cool if You Did"


(intro)
e|---------------------2-2----------------------2-2-|
B|---------------------2-2----------------------2-2-|
G|------4--------------3-3-------4--------------3-3-|
D|--------4------------4-4---------4------------4-4-|
A|-4-h6-----6-7-6br-s4-4-4--4-h6-----6-7-6br-s4-4-4-|
E|---------------------2-2----------------------2-2-|

(verse)
                    G#m                                       F#
I was gonna keep it real like chill like only have a drink or two
       G#m                                           F#      
But it turned into a party when I started talking to you
E                     F#             G#m                         F#                      
  Now you're standing    in the neon looking like a high I wanna be on
E                      F#
  Baby it's your call,    no pressure at all


(chorus)
                  G#m                         B 
You don't have to throw back your pretty pink lemonade shooter
    F#
And lean a little closer
                  G#m                  B                       F#
You don't have to keep on smiling that smile that's driving me wild
F#   
And when the night is almost over
G#m                        B                   F# 
Meet me in the middle of a moonlit Chevy bench seat
F#                     B       G#m   E  
And do a little bit of country song, hanging on
E                 G#m                  F#  
You don't have to keep me falling like this
F#                           E
But it'd sure be cool if you did

(instrumental)
e|-6brbr---6brbr---6brbr---|
B|-----------------------7-|
G|-------9-------8---------|
D|-------------------------|
A|-------------------------|
E|-------------------------|

(verse)
          G#m                                           F# 
You can't shoot me down cause you've already knocked me dead
       G#m                                           F#
Got me falling apart with my heart talking out of my head
E                    F#                  G#m                  F#
  Let your mind take    a little back road just as far as you wanna go
      E                     F#
Baby, I'll do, whatever you wanna do, wanna do



(chorus)
                  G#m                         B 
You don't have to throw back your pretty pink lemonade shooter
    F#
And lean a little closer
                  G#m                  B                       F#
You don't have to keep on smiling that smile that's driving me wild
F#   
And when the night is almost over
G#m                        B                   F# 
Meet me in the middle of a moonlit Chevy bench seat
F#                     B       G#m   E  
And do a little bit of country song, hanging on
E                 G#m                  F#  
You don't have to keep me falling like this
F#                           E  
But it'd sure be cool if you did

(instrumental)
e|-6brbr---6brbr---6brbr---|
B|-----------------------7-|
G|-------9-------8---------|
D|-------------------------|
A|-------------------------|
E|-------------------------|

(bridge)
F#                                 E    
Have a night that you'll never forget

(instrumental)
e|-6brbr---6brbr---6brbr-s9-|
B|--------------------------|
G|-------9-------8----------|
D|--------------------------|
A|--------------------------|
E|--------------------------|


(no chord)                                                              E
 And now you're standing  in the neon looking like a high I wanna be on


(chorus)
                  G#m                         B 
You don't have to throw back your pretty pink lemonade shooter
    F#
And lean a little closer
                  G#m                  B                       F#
You don't have to keep on smiling that smile that's driving me wild
F#   
And when the night is almost over
G#m                        B                   F# 
Meet me in the middle of a moonlit Chevy bench seat
F#                     B       G#m   E  
And do a little bit of country song, hanging on
E                 G#m                  F#  
You don't have to keep me falling like this
F#                           E    
But it'd sure be cool if you did

(instrumental)
e|-6brbr---6brbr---6brbr---|
B|-----------------------7-|
G|-------9-------8---------|
D|-------------------------|
A|-------------------------|
E|-------------------------|

F#                            E    
Yeah it'd sure be cool if you did
(out)
e|---------------------2-2----------------------2-2-|
B|---------------------2-2----------------------2-2-|
G|------4--------------3-3-------4--------------3-3-|
D|--------4------------4-4---------4------------4-4-|
A|-4-h6-----6-7-6br-s4-4-4--4-h6-----6-7-6br-s4-4-4-|
E|---------------------2-2----------------------2-2-|
comments
print report bad tab
I want to post or [tab]
guest
You may want to rate the tab now too:
select rating
Please do not post tabs as comments. Select "correction" instead!