Oops, an error
Loading. Please wait.

Economics Tab

741 views 1 this week
no commentswrite comment
1 2 3 4 5
please rate
add to favorites
launch autoscroll
font size
0
reset
how to read this tab
guitar tuner
Tab Pro tools
  • play this tab
  • loop segment
  • change instrument
  • show fretboard
  • metronome
×
Best way to learn
"Economics"
Autoscroll
slow
fast
+/-
esc
set tempo
stop
Contributor
Difficulty
Tuning
intermediate
D A D G B E
Some areas are more accurate than others so feel free to change anything.

Intro (0:00)
e|---------------------------|
B|---------------------------|
G|--9-0---9-9-0---9-0---9-9--| Slight bends on some of the chords
D|--8-0---8-8-0---8-0---8-8--|
A|--7-0---7-7-0---7-0---7-7--|
D|---------------------------|

(0:03)
e|---------------|
B|---------------|
G|--9-0---9-9-0--|
D|--8-0---8-8-0--| (x3)
A|--7-0---7-7-0--|
D|---------------|


e|----------------------------|
B|---------------3-0-----3-0--|
G|--9-0---9--1-0-----1-0------|
D|--8-0---8-------------------|
A|--7-0---7-------------------|
D|----------------------------|

This is terrific (0:10)
e|---------------|
B|---------------|
G|--9-0---9-9-0--|
D|--8-0---8-8-0--| (x3)
A|--7-0---7-7-0--|
D|---------------|


e|----------------------------|
B|---------------3-0-----3-0--|
G|--9-0---9--1-0-----1-0------|
D|--8-0---8-------------------|
A|--7-0---7-------------------|
D|----------------------------|

I've not been over (0:15)
e|---------------|
B|---------------|
G|--9-0---9-9-0--|
D|--8-0---8-8-0--| (x3)
A|--7-0---7-7-0--|
D|---------------|

e|-------------|
B|-------------|
G|--9-0---9-9--|
D|--8-0---8-8--|
A|--7-0---7-7--|
D|-------------|

Bass break (0:20)
G|-------------------------|
D|-------------------------|
A|----------0--0-0--0-0-0--| (x2)
D|--5-5-5------------------|

G|-------------------------|
D|-------------------------|
A|----------3--3-3--3-3-3--|
D|--5-5-5------------------|

Re-enter (0:25)
e|-------------------|
B|------3-0-----3-0--|
G|--1-0-----1-0------|
D|-------------------|
A|-------------------|
D|-------------------|

e|--8-0-0---------------6-0--|
B|-------------2-0-7-0-------|
G|--------5--0---------------|
D|---------------------------| (x2)
A|---------------------------|
D|---------------------------|

e|--8-0-0---------------6\---|
B|-------------2-0-7-0-------|
G|--------5--0---------------|
D|---------------------------|
A|---------------------------|
D|---------------------------|

e|-------------------|
B|------3-0-----3-0--|
G|--1-0-----1-0------|
D|-------------------|
A|-------------------|
D|-------------------|

e|--8-0-0---------------6-0--|
B|-------------2-0-7-0-------|
G|--------5--0---------------|
D|---------------------------| (x2)
A|---------------------------|
D|---------------------------|

e|--8-0-0---------------6\---|
B|-------------2-0-7-0-------|
G|--------5--0---------------|
D|---------------------------|
A|---------------------------|
D|---------------------------|

e|-------------------|
B|------3-0-----3-0--|
G|--1-0-----1-0------|
D|-------------------| (x2)
A|-------------------|
D|-------------------|

Bankers (0:40)
G|-------------------------|
D|-------------------------|
A|-------------------------| (x3)
D|--5-5-5---8--8-8--8-8-8--|

Bastards (0:46)
e|------------------------------|
B|------------------------------|
G|--------3--3-3-4--4-4-7--7-7--|
D|--5-5-5-2--2-2-3--3-3-6--6-6--|
A|--5-5-5-1--1-1-2--2-2-5--5-5--|
D|--5-5-5-----------------------|

e|--------------------------|
B|----------------3-0-0-----|
G|--------3--3-3--------3b--|
D|--5-5-5-2--2-2------------| (x3)
A|--5-5-5-1--1-1------------|
D|--5-5-5-------------------|

e|------------------------------|
B|------------------------------|
G|--------3--3-3-4--4-4-7--7-7--|
D|--5-5-5-2--2-2-3--3-3-6--6-6--|
A|--5-5-5-1--1-1-2--2-2-5--5-5--|
D|--5-5-5-----------------------|

e|--------------------------|
B|----------------3-0-0-----|
G|--------3--3-3--------3b--|
D|--5-5-5-2--2-2------------| (x3)
A|--5-5-5-1--1-1------------|
D|--5-5-5-------------------|

e|------------------------------|
B|------------------------------|
G|--------3--3-3-4--4-4-7--7-7--|
D|--5-5-5-2--2-2-3--3-3-6--6-6--|
A|--5-5-5-1--1-1-2--2-2-5--5-5--|
D|--5-5-5-----------------------|

(1:04)
e|-----------------------------|
B|-----------------------------|
G|--1010101010101010-99999999--|
D|--9-9-9-9-9-9-9-9--88888888--|
A|--8-8-8-8-8-8-8-8--77777777--|
D|-----------------------------|

We know that there's a problem (1:07)
e|-------------|
B|-------------|
G|-------------|
D|--5----------|
A|--5----------|
D|--5----------|

e|-----------------------------|
B|-----------------------------|
G|--1010101010101010-99999999--|
D|--9-9-9-9-9-9-9-9--88888888--|
A|--8-8-8-8-8-8-8-8--77777777--|
D|-----------------------------|

And why the economy's so bleak (1:12)
e|-------------|
B|-------------|
G|-------------|
D|--5----------|
A|--5----------|
D|--5----------|

e|-------------------------------------|
B|-------------------------------------|
G|--1010101010101010-1212121212121212--|
D|--9-9-9-9-9-9-9-9--1111111111111111--|
A|--8-8-8-8-8-8-8-8--1010101010101010--|
D|-------------------------------------|

What we all earn in one year (1:17)
e|--------------|
B|--------------|
G|--15----------|
D|--14----------|
A|--13----------|
D|--------------|

Footballers earn in one week (1:19)
e|---------------------------|
B|---------------------------|
G|--1010101010101010-999999--|
D|--9-9-9-9-9-9-9-9--888888--|
A|--8-8-8-8-8-8-8-8--777777--|
D|---------------------------|

(1:21)
e|--------------------------|
B|----------------3/15------|
G|--------3--3-3------------|
D|--5-5-5-2--2-2------------|
A|--5-5-5-1--1-1------------|
D|--5-5-5-------------------|

e|--------------------------|
B|--------------------------|
G|--------3--3-3---x-x------|
D|--5-5-5-2--2-2---x-x------| (x2)
A|--5-5-5-1--1-1---x-x------|
D|--5-5-5-------------------|

e|------------------------------|
B|------------------------------|
G|--------3--3-3-4--4-4-7--7-7--|
D|--5-5-5-2--2-2-3--3-3-6--6-6--|
A|--5-5-5-1--1-1-2--2-2-5--5-5--|
D|--5-5-5-----------------------|

(1:30)
e|-----------|
B|-----------|
G|-----------|
D|--5-5-5-5--| (x6)
A|--5-5-5-5--|
D|--5-5-5-5--|

Nine to five data entry funeral procession (1:36)
e|-----------|
B|--8-8-8-8--|
G|--7-7-7-7--|
D|--5-5-5-5--| (x6)
A|--5-5-5-5--|
D|--5-5-5-5--|

(1:43)

e|---------------------------|
B|--13----7-8----------------|
G|--12----6-7---11-12---6-7--|
D|--11----5-6---10-11---5-6--|
A|--10----4-5---9--10---4-5--|
D|---------------------------|

e|-------------------------------|
B|--13----7-8--------------------|
G|--12----6-7---11-12---6-7-7-7--|
D|--11----5-6---10-11---5-6-6-6--|
A|--10----4-5---9--10---4-5-5-5--|
D|-------------------------------|

e|---------------------------|
B|--13----7-8----------------|
G|--12----6-7---11-12---6-7--|
D|--11----5-6---10-11---5-6--|
A|--10----4-5---9--10---4-5--|
D|---------------------------|

e|-------------------------------|
B|--13----7-8--------------------|
G|--12----6-7---11-12---6-7-7-7--|
D|--11----5-6---10-11---5-6-6-6--|
A|--10----4-5---9--10---4-5-5-5--|
D|-------------------------------|

And I'll play euromillions each week (1:56)
e|----------------------------|
B|--13----7-8-----------------|
G|--12----6-7---11-12---6-7/--|
D|--11----5-6---10-11---5-6/--|
A|--10----4-5---9--10---4-5/--|
D|----------------------------|

Everbody wants(2:00)

More (2:01)
e|------------------------------|
B|------------------------------|
G|--10101010101010101010101010--|
D|--9-9-9-9-9-9-9-9-9-9-9-9-9---|
A|--8-8-8-8-8-8-8-8-8-8-8-8-8---|
D|------------------------------|

e|--------------------|
B|--13----7-8---------|
G|--12----6-7----7-0--|
D|--11----5-6----6-0--|
A|--10----4-5----5-0--|
D|--------------------|

e|------------------------------|
B|------------------------------|
G|--10101010101010101010101010--|
D|--9-9-9-9-9-9-9-9-9-9-9-9-9---|
A|--8-8-8-8-8-8-8-8-8-8-8-8-8---|
D|------------------------------|

e|--------------------|
B|--13----7-8---------|
G|--12----6-7----7-0--|
D|--11----5-6----6-0--|
A|--10----4-5----5-0--|
D|--------------------|

e|------------------------------|
B|------------------------------|
G|--10101010101010101010101010--|
D|--9-9-9-9-9-9-9-9-9-9-9-9-9---|
A|--8-8-8-8-8-8-8-8-8-8-8-8-8---|
D|------------------------------|

e|--------------------|
B|--13----7-8---------|
G|--12----6-7----7-0--|
D|--11----5-6----6-0--|
A|--10----4-5----5-0--|
D|--------------------|

e|------------------------------|
B|------------------------------|
G|--10101010101010101010101010--|
D|--9-9-9-9-9-9-9-9-9-9-9-9-9---|
A|--8-8-8-8-8-8-8-8-8-8-8-8-8---|
D|------------------------------|

Lets all get a loan (2:13)
e|-------------------------------|
B|--13----7-8--------------------|
G|--12----6-7---11-12---6-7-7-7--|
D|--11----5-6---10-11---5-6-6-6--|
A|--10----4-5---9--10---4-5-5-5--|
D|-------------------------------|

e|---------------------------|
B|--13----7-8----------------|
G|--12----6-7---11-12---6-7--|
D|--11----5-6---10-11---5-6--|
A|--10----4-5---9--10---4-5--|
D|---------------------------|

Cause I still live at home (2:19)

G|----------------------------------|
D|----------------------------------|
A|----------------------------------|
D|--5-5--11/12-12-12--8-8-8--3-3-3--|

G|------------------------------|
D|------------------------------|
A|------------------------------|
D|--5-5--11/12-12-12--8-8-8--3--|

(2:25)
e|------------------------------------|
B|--15-------------------------13-14--|
G|-----12-10-13-11-12-7-8-11-7--------|
D|------------------------------------|
A|------------------------------------|
D|------------------------------------|

e|------------------------------------|
B|--15--------------------------------|
G|-----12-10-13-11-12-7-8-11-7--------|
D|------------------------------x--x--|
A|------------------------------x--x--|
D|------------------------------x--x--|

(2:34)
e|------------------------------|
B|------------------------------|
G|------------------------------|
D|--12-5-3-6-4-5-0-1-4-0-10-11--|
A|--12-5-3-6-4-5-0-1-4-0-10-11--|
D|--12-5-3-6-4-5-0-1-4-0-10-11--|

e|------------------------------|
B|------------------------------|
G|-----------------------(4*)---|
D|--12-5-3-6-4-5-0-1-4-0--------| 
A|--12-5-3-6-4-5-0-1-4-0--------|
D|--12-5-3-6-4-5-0-1-4-0--------|

e|------------------------------|
B|------------------------------|
G|------------------------------|
D|--12-5-3-6-4-5-0-1-4-0-10-11--|
A|--12-5-3-6-4-5-0-1-4-0-10-11--|
D|--12-5-3-6-4-5-0-1-4-0-10-11--|

e|------------------------------|
B|------------------------------|
G|------------------------------|
D|--12-5-3-6-4-5-0-1-4-0--------|
A|--12-5-3-6-4-5-0-1-4-0--------|
D|--12-5-3-6-4-5-0-1-4-0--------|

When you open your eyes (2:50)
e|--------------------------|
B|--------------------------|
G|--------------------------|
D|--12-12--11-11--8-8--7-7--|
A|--12-12--11-11--8-8--7-7--|
D|--12-12--11-11--8-8--7-7--|

e|--------------------------|
B|--------------------------|
G|--------------------------|
D|--12-12--11-11--8-8--7----|
A|--12-12--11-11--8-8--7----|
D|--12-12--11-11--8-8--7----|

e|--------------------------|
B|--------------------------|
G|--------------------------|
D|--12-12--11-11--8-8--7-7--|
A|--12-12--11-11--8-8--7-7--|
D|--12-12--11-11--8-8--7-7--|

e|---------------------------------|
B|---------------------------------|
G|---------------------------------|
D|--12-12--11-11--8-8--7-7-11-12/--|
A|--12-12--11-11--8-8--7-7-11-12/--|
D|--12-12--11-11--8-8--7-7-11-12/--|
comments
We did not receive enough feedback on this tab! Please rate:
print report bad tab
1 2 3 4 5
I want to post or [tab]
guest
You may want to rate the tab now too:
select rating
Please do not post tabs as comments. Select "correction" instead!