Oops, an error
Loading. Please wait.

Im Laughing Now But Its No Joke Bass Tab

265 views 1 this week
no commentswrite comment
1 2 3 4 5
3 more votes to show rating
add to favorites
launch autoscroll
font size
0
reset
guitar tuner
Autoscroll
slow
fast
+/-
esc
set tempo
stop
Help us to improve Ultimate-Guitar.com Take our survey!
×
Author
-------------------------------------------------------------------------------
	I'm Laughing Now... But It's No Joke - Blakfish
-------------------------------------------------------------------------------

 Tabbed by:dvanwyk
 Email:dustinvanwyk@yahoo.com

 Tuning:Drop D

 Verse x2 (0.19)
G|------------------------|
D|------------------------|
A|---------3--------------|
D|0~----3-----5/7~--------|

G|-------------------------|
D|-------------------------|
A|----------3--------------|
D|0~---0-3-----5/7~--------|


 x4
G|------------------------|
D|------------------------|
A|----55-----3------------|
D|0-0------0---5-0--------|

G|----------------------------------------|
D|----------------------------------------|
A|3---------------------3-----------------|
D|---5---7~--0~---0--3-----5/7~--0~-------|

 x4
G|---------------------------------------|
D|---------------------------------------|
A|---------------------------3-0---------|
D|88888888-55555555-33333333-------------|

 x2
G|---------------------------|
D|---------------------------|
A|------33-55--------33------|
D|88-33--------88-33---------|


 x2
G|-----------------------------------------------------------|
D|-----------------------------------------------------------|
A|--------33------------33---55-------------33---------------|
D|88--33------88--33--------------88---77---------88-8~------|

 x4
G|------------------------|
D|------------------------|
A|----55-----3------------|
D|0-5------0---5-0--------|


 Outro x4
G|------------------------|
D|------------------------|
A|---------3--------------|
D|0~----3-----5/7~--------|


 x2
G|-----------------|
D|-----------------|
A|------/8~--------|
D|0~---------------|

http://www.myspace.com/blakfish
Suggest correction
Give kudos to tab author, rate the tab!
1 2 3 4 5
comments
print report bad tab
guest
You may want to rate the tab now too:
select rating
Wanna post a correction for this tab? Suggest correction