Oops, an error
Loading. Please wait.

Your Hairs Straight But Your Boyfriend Aint Bass Tab

463 views 1 this week
no commentswrite comment
1 2 3 4 5
please rate
add to favorites
launch autoscroll
font size
0
reset
guitar tuner
Autoscroll
slow
fast
+/-
esc
set tempo
stop
Help us to improve Ultimate-Guitar.com Take our survey!
×
Author
dvanwyk 5,825
-------------------------------------------------------------------------------
     Your Hair's Straight But Your Boyfriend Ain't - Blakfish
-------------------------------------------------------------------------------

 Tabbed by:dvanwyk
 Email:dustinvanwyk@yahoo.com

 Tuning:Drop D

 x2
G|--------------------------------------|
D|--------------------------------------|
A|--------1--------2----------1--4-4----|
D|2p0-2p0---3p03p0----2p0-2p0-----------|

G|--------------------------------------------|
D|--------------------------------------------|
A|--------1--------2----------1--4-4--4-4-4\--|
D|2p0-2p0---3p03p0----2p0-2p0-----------------|

 x3
G|----------------------|
D|----------------------|
A|--------1--------2----|
D|2p0-2p0---3p03p0------|

G|--------------------|
D|--------------------|
A|--------1-----444---|
D|2p0-2p0---3p0-------|

 x3
G|----------------------|
D|----------------------|
A|--------1--------2----|
D|2p0-2p0---3p03p0------|

G|---------------------------|
D|---------------------------|
A|--------1-----4-4--4-4-4---|
D|2p0-2p0---3p0--------------|


G|---8h10-8----------------8h10-8---------------|
D|6~--------10----------6~--------10------------|
A|--------------6~--8~----------------6-6-8~----|
D|----------------------------------------------|

 x2
G|-----------------------------------|
D|6~------------5--6~----------------|
A|----3-5-6~--8--------3-5-6~--8~----|
D|-----------------------------------|

G|-----------------------------------|
D|------------------------------5----|
A|----------3-3-5-6-6-6-6-6-8-8------|
D|6-6-6-6-6--------------------------|

 x4
G|----------------------------------|
D|----------------------------------|(NB:1's not 11's)
A|----------------------------------|
D|666666666666-111111111111-33-55---|

G|------------------|
D|------------------|
A|------------------|
D|6~----6~----------|

G|------------------|
D|----------5-------|
A|3-5-6~--8---------|
D|------------------|

G|--------------------------------------------------|
D|-------------------------------5------------------|
A|----3-5-6~-----------3-5-6~--8--------3-5-6~------|
D|6~----------3-5--6~---------------6~--------------|


 (2.00) x7
      t      t      t           t             t 
G|--------------------------------------------12\10-------|
D|----12------------12/13-------12------------------------|
A|-----------11------------------------11-----------------|
D|5-8----5-8----5-8---------5-8----5-8----5-8-------------|

      t      t      t      t      t  t
G|----10-----12------------------------------------------|
D|------------------13-----12-----13---------------------|
A|-----------------------------------13------------------|
D|5-8----5-8----5-8----5-8----5-8------------------------|

 
        t      t      t           t             t 
G|--------------------------------------------12\10-------|
D|----12------------12/13-------12------------------------|
A|-----------11------------------------11-----------------|
D|5-8----5-8----5-8---------5-8----5-8----5-8-------------|



G|10--12-----------------|
D|--------13--10---8-----|
A|-----------------------|
D|-----------------------|

 x2
G|-------------------------------------------------------|
D|-------------------------------------------------------|
A|6-6-6----------------66666-----------------------------|
D|------8888/10101010--------88--1010--------------------|

G|-------------------------------77----------------------|
D|------10-10-10p8---------1010------------10-10-10p8----|
A|6-6-6-------------6-6-6------------6-6-6---------------|
D|-------------------------------------------------------|

 x1
G|---------------------------------|
D|---------------------------------|
A|6-6-6----------------------------|
D|------8888/10101010--10~--7~-----|


 x3
G|--------------------|
D|--------------------|
A|6-6-6-6--3-3--4-4---|
D|--------------------|

G|--------------------|
D|--------------------|
A|66666666-3333-4444--|
D|--------------------|

G|---------------------------------------------------------|
D|--------------------------------3h5----------------------|
A|333------------------555----333-------------------555----|
D|-------333---6666555----------------333---6666555--------|

 (3.41)
G|---------------------------------------------------|
D|---------------------------------------------------|
A|---------------555----333-------------------555----|
D|333----6666555---------------333----6666555--------|

 x4
G|----------------------------|
D|----555---------------------|
A|333------------------555----|
D|--------333--6666555--------|

G|--------------|
D|--------------|
A|6--8----------|
D|------6~------|
Suggest correction new What's this?
You can suggest a correction to this tab. Community and Mods will review your correction and vote to approve or reject it.
comments
We did not receive enough feedback on this tab! Please rate:
print report bad tab
1 2 3 4 5
guest
You may want to rate the tab now too:
select rating
Please do not post tabs as comments. Select "correction" instead!