Oops, an error
Loading. Please wait.

No Compass tab

281 views 1 this week
3 commentsread comments
1 2 3 4 5
x 3
add to favorites
×
Save as Personal and add changes to this tab that will be seen only by you. Learn more ›
×
You can save this tab as Personal to edit and correct it or add notes. All changes will be seen only by you. Learn more »
launch autoscroll
font size
0
reset
how to read this tab
guitar tuner
edit
Autoscroll
slow
fast
+/-
esc
set tempo
stop
Author
Difficulty
Blank Dogs - No Compass
From the album "Under and Under" (In The Red Recordings 2009).

Tabbed by Isaac Murguia, July 30, 2013.
Updated November 9, 2013 - fixed typo.
YouTube: Goadiroth

https://www.facebook.com/pages/Blank-Dogs/128886924534

NOTE: He doesn't play the Chorus EXACTLY the same throughout the song...
      For example, he might add one more strum of the 8th fret of B, and so on...
      But I tabbed the core structure of that riff. Cheers!

CHORUS:
e|---------------------------------|--------------------------------|
B|----------------6-6-666-8-888888-|---------------6-6-666-8-88-888-|
G|-5-7-87-5-7-777------------------|-5-7-87-5-7-77------------------|
D|---------------------------------|--------------------------------|
A|---------------------------------|--------------------------------|
E|---------------------------------|--------------------------------|

e|--------------------------------------------|
B|-9-9-999-8-88-8888-11-11--11-11-11-8-88-888-|
G|--------------------------------------------|
D|--------------------------------------------|
A|--------------------------------------------|
E|--------------------------------------------|

e|--------------------------------------------|
B|-9-9-999-8-88-888-11-11--11-11-11-8-88-8888-|
G|--------------------------------------------|
D|--------------------------------------------|
A|--------------------------------------------|
E|--------------------------------------------|

VERSE:
e|-------|-8-86----|-------|-8-86--|
B|-9--8--|------8--|-9--8--|-------|
G|-------|---------|-------|-------|
D|-------|---------|-------|-------|
A|-------|---------|-------|-------|
E|-------|---------|-------|-------|

e|-------------------|
B|-9-9-8-8-11-11-8-8-|
G|-------------------|
D|-------------------|
A|-------------------|
E|-------------------| [x8]

PRE-CHORUS:
e|-------------------------------|
B|-------------------------------|
G|-11--11-11-11-11-11---7--77777-|
D|-11--11-11-11-11-11---7--77777-|
A|-9---9--9--9--9--9----5--55555-|
E|-------------------------------| [x4]

Repeat CHORUS
Repeat VERSE
Repeat PRE-CHORUS
Repeat CHORUS

OUTRO:
e|---------------------|
B|-9-9-9-9-9-9--8-8----|
G|---------------------|
D|---------------------|
A|---------------------|
E|---------------------|

End. Please rate!

            
            
Suggest correction
Creating personal tab
Creating personal tab
You can edit any tab online and save it as your Personal.

You can edit, replace or remove any tab part or add personal notes – all changes will be seen only by you.

Personal tabs can be accessed anytime from any device, even offline.
Learn more »
Give kudos to tab author, rate the tab!
1 2 3 4 5
comments
print report bad tab
3 comments total.
0 reply
arseny.pokrovsk 10 Nov 09, 2013 08:19 AM

i think that there is 11 instead of 10 in the 2d part of the chorus!
B|-9-9-999-8-88-8888-11-11--11-11-11-8-88-888|

and also thankx great but!? u have already tabed all my favorite songs????

0 reply
bermejomanuel0 10 Feb 14, 2014 09:43 PM

Dude so awesome more Blank Dogs tabs, or Little Girls - Concepts Album is great too!

guest
You may want to rate the tab now too:
select rating
Wanna post a correction for this tab? Suggest correction