Oops, an error
Loading. Please wait.

While You Were Gone Tab

1,116 views 1 this week
1 commentread comment
1 2 3 4 5
1 last vote to show rating
add to favorites
launch autoscroll
font size
0
reset
how to read this tab
guitar tuner
Autoscroll
slow
fast
+/-
esc
set tempo
stop
Help us to improve Ultimate-Guitar.com Take our survey!
×
Author
Difficulty
intermediate
band:blazebayley
song:while you were gone
album:the man who would not die

main riff:
guitar1
e-----------------------------------------|
b-----------------------------------------|
g-----------------------------------------|
d-----------------------------------------|
a-2---545-----2---5-4-2-5-4-2-------------|
E----------2------------------5-3-5-5-3-2-|

e----------------------------------------|
b----------------------------------------|
g----------------------------------------|
d---------------------------------22-----|
a-2---545-----2---5-4-2-5-4-2-4-5----54--|
E----------2-----------------------------|

guitar 2:
e----------------------------------------|
b----------------------------------------|
g----------------------------------------|
d-4---------2----------5-----7-----------|
a-2---------2----------5-----7------x2---|
E-2---------0----------3-----5-----------|

clean verse:
e-----------------------------------0----|
b---------------------0------------------|
g--------------------0-0-------0---------|
d--4-2-4-5-4-2-4----2---0-----0----0-----|
a-2-----------x2---2-----0---2----4------|
E-----------------0---------3----5-------|

e---------------------0------------------|
b----------------------------------------|
g--------------------0-0-------0----0----|
d---2-4-2-5-4-2-4---0---0-----0----0-----|
a-2-----------x2---4-----0---2----1------|
E-----------------5---------3----2-------|

............................m....
e----------------0-----------------------|
b------0------------------3-5-3----------|
g-----0-0-------0-0------4------2---mx2--|
d----0---0-----0---0----4---------2------|
a---2-----2---4-----4--2-----------------|
E--3---------5---------------------------|

e----------------0-----------------------|
b------0-------------------0-------------|
g-----0-0-------0-0-------0-----0--------|
d----0---0-----0---0-----0-----0---------|
a---2-----2---4-----4---1-----0----------|
E--3---------5---------2-----1-----------|

thats roughly the main parts.
i'll tab the rest when i have more time.
Suggest correction
Give kudos to tab author, rate the tab!
1 2 3 4 5
comments
print report bad tab
1 comment total.
0 reply
kylodaren 10 Jun 17, 2016 02:44 PM

Tab the rest laddy

guest
You may want to rate the tab now too:
select rating
Wanna post a correction for this tab? Suggest correction