Oops, an error
Loading. Please wait.

Perfect Family chords

version 1
version 1

Whole song

  • Specific, timed and corrected chords and lyrics th... Show more
by Bleach
43 views 1 this week
1 commentread comment
1 2 3 4 5
x 7
add to favorites
×
Save as Personal and add changes to this tab that will be seen only by you. Learn more ›
×
You can save this tab as Personal to edit and correct it or add notes. All changes will be seen only by you. Learn more »
launch autoscroll
font size
0
reset
transpose
0
reset
display chords
guitar tuner
edit
Autoscroll
slow
fast
+/-
esc
set tempo
stop
Strumming
There is no strumming pattern for this song yet. and get +5 IQ
SONG:   PERFECT FAMILY
ARTIST: BLEACH
TAB BY: DON CZARSKI
EMAIL:  GUITARZAN7@HOTMAIL.COM


                  PERFECT FAMILY
                      BLEACH

INTRO:
GUITAR 1:
   E                   A
E -----------------------------------------
B -----------------------------------------
G -----------------------------------------   Continue this                                   
D -2-2-4-2---2-2-4-2---2-2-4-2----2-2-4-2--    until VERSE
A -----------------------------------------
E -----------------------------------------


GUITAR 2 (Enters after 4th time of guitar 1):
E   E   A   A  C#m  C#m  A   A
//  //  //  //  //  //  //  //


VERSE:
 E
There was this boy
 A
And his name was Jerry
C#m
He had a girl
 A                     E
And her name was Sally-y

 E
They were so happy
A           B
So much in love
 C#m
Drank Coca-Cola 
A
In his mini bus

   E                   A
E -----------------------------------------
B -----------------------------------------
G -----------------------------------------                                     
D -2-2-4-2---2-2-4-2---2-2-4-2----2-2-4-2--    
A -----------------------------------------
E -----------------------------------------


VERSE:
E
A few years later
 A
They got married
C#m
They had two kids 
 A
And a dog named Spot

 E
They were so happy
A           B
So much in love
C#m
They put their kids to bed
     A
And then watched Ben Hur


CHORUS:
 E   A       B
The perfect family
 A            E
Jerry and Sally

 E   A       B   A  E
The perfect family

     A       B
The perfect family
 A            E
Jerry and Sally

 E   A       B   A  
The perfect family

   E                   A
E -----------------------------------------
B -----------------------------------------
G -----------------------------------------                                     
D -2-2-4-2---2-2-4-2---2-2-4-2----2-2-4-2--    
A -----------------------------------------
E -----------------------------------------

   C#m                 A
E -----------------------------------------
B -----------------------------------------
G -----------------------------------------                                     
D -2-2-4-2---2-2-4-2---2-2-4-2----2-2-4-2--    
A -----------------------------------------
E -----------------------------------------


SOLO over these chords:
E  A  C#m  A  
E  A  C#m  A  
E  A  C#m  A  


CHORUS:
 E   A       B
The perfect family
 A            E
Jerry and Sally

 E   A       B   A  E
The perfect family

     A       B
The perfect family
 A            E
Jerry and Sally

 E   A       B     A  
The perfect family


VERSE:
 E
Sally and Jerey  
 A
Sure been through a lot
C#m
But they remember 
        A         E
Their promise to God


OUTRO:
 E              A
Jerry's getting older now
C#m              A
He's losing his hair

 E          A
Losing his teeth
    C#m
But Sally 
 A         B    E    
Really doesn't careT

            
            
Suggest correction
Creating personal tab
Creating personal tab
You can edit any tab online and save it as your Personal.

You can edit, replace or remove any tab part or add personal notes – all changes will be seen only by you.

Personal tabs can be accessed anytime from any device, even offline.
Learn more »
comments
print report bad tab
1 comment total.
-1 reply
logan.hartz1 16 Jun 01, 2017 07:51 AM

thanks for doing this. sounds perfect

guest
You may want to rate the tab now too:
select rating
Wanna post a correction for this tab? Suggest correction