Oops, an error
Loading. Please wait.

Waving Goodbye Bass Tab

302 views 1 this week
no commentswrite comment
1 2 3 4 5
please rate
add to favorites
launch autoscroll
font size
0
reset
guitar tuner
Autoscroll
slow
fast
+/-
esc
set tempo
stop
Help us to improve Ultimate-Guitar.com Take our survey!
×
Band: Bleach
Song: Waving Goodbye
Album: Static
     Tabbed by: Matt (MC) 
     E-mail: mlit37@yahoo.com
-Yo. I looked everywhere for this tab, and I couldn't find it! I was so mad so I
listened to the song and I got it! I hope you like it, I'm 99% sure that it is
correct. 
"(#)" means "there are 2 ways to play it and you can choose"
"[#]" means "only play first time trough"
"/" means "slide down"
"\" means "slide up"
"^" means "bend note"
"~" means "let ring"
"*" means "stop ring after you play the note"
-Verse 1-
G|---------------------------------------------------------------------------
D|---------------------------------------------------------------------------
A|--------------00-3/7-00----------------00-3/7-00---5-5h6-5h7^/9------------
E|---[0-0-00]-------------4-2--0h2p0h2-0-----------4-------------------------

G|-----------------------------------------------------------------------------
D|-----------------------------------------------------------------------------
A|--3/7-00----------------------00-3/7-00---------------00-3/7-00---5h6-5h7^/9-
E|---------2-4-0h2p0h2/10~--7\5-----------4-2-0h2p0h2-0-----------4------------

G|----------------------------------------------------------------------------|
D|----------------------------------------------------------------------------|
A|-000-3/7-00-----------------------------------------------------------------|
E|------------2-4-0h2p0h2/10~-------------------------------------------------|

 (Once again I'm not sure about this, but what5 the heck I just put down what I
thought was good.)
-Chorus 1-
G|---------------------------------------------------------------------------|
D|---------------------------------------------------------------------------|
A|--(00000000)-33333333-55555555-55555555-(00000000)-33333333----------------|
E|--(55555555)----------------------------(55555555)----------5~-------------|

-Verse 2-
G|----------------------------------------------------------------------------
D|----------------------------------------------------------------------------
A|----------00-3/7-00-----------------00-3/7-00---5-5h6-5h7^/9----------------
E|--------------------4-2--0h2p0h2-0------------4-----------------------------

G|-----------------------------|
D|-----------------------------|
A|-000-3/7-00------------------|
E|------------2-4-0h2p0h2/10~--|

-Chorus 2-
G|---------------------------------------------------------------------------------|
D|---------------------------------------------------------------------------------|
A|-(00000000)-33333333-55555555-55555555-(00000000)-33333333-55555555-55555555-----|
E|-(55555555)----------------------------(55555555)--------------------------------|
-Interlude part- but it has they sing the Chorus in it a few times.
G|---------------------------------------------------------------------------------|
D|---------------------------------------------------------------------------------|
A|--(00000000)-44444444-55555555-55555555-(00000000)-44444444----------------------|
E|--(55555555)----------------------------(55555555)----------55555555-33-22-11-00-|

G|---------------------------------------------------------------------------------|
D|---------------------------------------------------------------------------------|
A|-(00000000)-33333333-55555555-55555555-(00000000)-33333333-55555555-55555555-----|
E|-(55555555)----------------------------(55555555)--------------------------------|

G|---------------------------------------------------------------------------------|
D|---------------------------------------------------------------------------------|
A|-(00000000)-33333333-55555555-------(5\1p00000000)-33333333-55555555-55555555----|
E|-(55555555)-------------------111*--(-7\555555555)-------------------------------|

G|---------------------------------------------------------------------------------|
D|---------------------------------------------------------------------------------|
A|-(00000000)-44444444-55555555-55555555-(00000000)-44444444-55555555-55555555-----|
E|-(55555555)----------------------------(55555555)--------------------------------|
repeat this line x2 and then your done! 
       Make sure you end on a "E|-5-" or "A|-0-" though. Once you get it down in
your head it is really easy. But seriously sometimes I would look at a tabs like
this a just  not even try, but if you try at this it will be so easy, just look
at me!, I tabbbed the song! And I have been playing for only 6 or 7 months. Well
I hope you enjoy the tab. And of course E-mail me if you have any questions or
concerns. Thanks so much "Ultimate-Guitar"!! peace.
Suggest correction
Give kudos to tab author, rate the tab!
1 2 3 4 5
comments
print report bad tab
guest
You may want to rate the tab now too:
select rating
Wanna post a correction for this tab? Suggest correction