Oops, an error
Loading. Please wait.

I Wanna Get Better bass

433 views 6 this week
no commentswrite comment
1 2 3 4 5
x 3
add to favorites
×
Save as Personal and add changes to this tab that will be seen only by you. Learn more ›
×
You can save this tab as Personal to edit and correct it or add notes. All changes will be seen only by you. Learn more »
launch autoscroll
font size
0
reset
guitar tuner
edit
Autoscroll
slow
fast
+/-
esc
set tempo
stop
Bleachers- I Wanna Get Better

Tabbed by maiacatherine

Intro, verses, and chorus

G|--------------------------------------------------------|
D|--------------------------------------------------------|
A|-7--7--7--7-7-------------------------------------------|
E|--------------7-7-7--7-7-7--5-5-5--5-5-5--7-7-7--7-7-7--|

Bridge ("Now that I'm sleeping in the back of a taxi...")

G|----------------------------|
D|----------------------------|
A|-9--9--9--9-----------------|
E|------------9--5--5--5--5-7-|

Guitar solo, it goes back to the main riff.

Bridge 2 ("Woke up this morning early before my family")

G|---------------------------------------------------|
D|---------------------------------------------------|
A|-7--7--7-------------------------------------------|
E|---------7--7-7--7--7--5--5-5--5--5--7--7--7-7--7--|

Song ends on a A|-7-
Suggest correction
Creating personal tab
Creating personal tab
You can edit any tab online and save it as your Personal.

You can edit, replace or remove any tab part or add personal notes – all changes will be seen only by you.

Personal tabs can be accessed anytime from any device, even offline.
Learn more »
Give kudos to tab author, rate the tab!
1 2 3 4 5
comments
print report bad tab
guest
You may want to rate the tab now too:
select rating
Wanna post a correction for this tab? Suggest correction