Oops, an error
Loading. Please wait.

Pick Me Up tab

2,058 views 1 this week
no commentswrite comment
1 2 3 4 5
2 more votes to show rating
add to favorites
×
Save as Personal and add changes to this tab that will be seen only by you. Learn more ›
×
You can save this tab as Personal to edit and correct it or add notes. All changes will be seen only by you. Learn more »
launch autoscroll
font size
0
reset
how to read this tab
guitar tuner
edit
Autoscroll
slow
fast
+/-
esc
set tempo
stop
Pick Me Up
Bleeker Ridge
Small Town Dead (2010)

Pick You Up: written by Cole Perkins, Dan Steinke, Dustin Steinke, Taylor 
Perkins, and Dave Bassett

Bleeker Ridge Official Website: http://www.bleekerridge.com

NOTE: GTR III is GTR I with a Flanger Pedal

GTR I - Drop C Tuning "Cole Perkins" Distortion (d,A,F,C,G,C)
GTR II - Drop C Tuning "Dan Steinke" Distortion (d,A,F,C,G,C)
GTR III - Drop C Tuning "Cole Perkins" Distortion w. Flanger (d,A,F,C,G,C)

Intro

  GTR III
d|-------------------------------------------------|
A|-------------------------------------------------|
F|----14-------13--------7-------------------------|
C|-----x--------x--------x-------------------------|
G|----12-------11--------5--------------------0--0-|
C|--0--------0--------0-----------------------0--0-|
                                              .  .

  GTR III
d|-------------------------------------------------|
A|-------------------------------------------------|
F|--7----------------------10----------12----------|
C|--x-----------------------x-----------x----------|
G|--5-----------------0--0--8----------10----------|
C|--------------------0--0-------------------------|
                      .  .

  GTR III
d|-------------------------------------------------|
A|-------------------------------------------------|
F|----14-------13--------7-------------------------|
C|-----x--------x--------x-------------------------|
G|----12-------11--------5--------------------0--0-|
C|--0--------0--------0-----------------------0--0-|
                                              .  .

  GTR III
d|-------------------------------------------------|
A|-------------------------------------------------|
F|--7----------------------10----------12----------|
C|--x-----------------------x-----------x----------|
G|--5-----------------0--0--8----------10----------|
C|--------------------0--0-------------------------|
                      .  .

Pre Verse

  GTR I
d|-------------------------------------------------|
A|-------------------------------------------------|
F|----14-------13--------7-------------------------|
C|-----x--------x--------x-------------------------|
G|----12-------11--------5-------------------------|
C|--0--------0--------0----------------------------|
 |                                                
 |GTR II
d|-------------------------------------------------|
A|-------------------------------------------------|
F|-------------------------------------------------|
C|-------------------------------------------------|
G|--0-----0-----0--0-----0--0-----0-----0-----0----|
C|--0-----0-----0--0-----0--0-----0-----0-----0----|
    .     .     .  .     .  .     .     .     .

  GTR I
d|-------------------------------------------------|
A|-------------------------------------------------|
F|--7----------------------10----------12----------|
C|--x-----------------------x-----------x----------|
G|--5-----------------------8----------10----------|
C|-------------------------------------------------|
 |                         
 |GTR II
d|-------------------------------------------------|
A|-------------------------------------------------|
F|-------------------------------------------------|
C|--------------------------3-----------5----------|
G|--0-----0-----0-----0-----3-----------5----------|
C|--0-----0-----0-----0-----3-----------5----------|
    .     .     .     .

  GTR I
d|-------------------------------------------------|
A|-------------------------------------------------|
F|----14-------13--------7-------------------------|
C|-----x--------x--------x-------------------------|
G|----12-------11--------5-------------------------|
C|--0--------0--------0----------------------------|
 |                                                
 |GTR II
d|-------------------------------------------------|
A|-------------------------------------------------|
F|-------------------------------------------------|
C|-------------------------------------------------|
G|--0-----0-----0--0-----0--0-----0-----0-----0----|
C|--0-----0-----0--0-----0--0-----0-----0-----0----|
    .     .     .  .     .  .     .     .     .

  GTR I
d|-------------------------------------------------|
A|-------------------------------------------------|
F|--7----------------------10----------12----------|
C|--x-----------------------x-----------x----------|
G|--5-----------------------8----------10----------|
C|-------------------------------------------------|
 |                         
 |GTR II
d|-------------------------------------------------|
A|-------------------------------------------------|
F|-------------------------------------------------|
C|--------------------------3-----------5----------|
G|--0-----0-----0-----0-----3-----------5----------|
C|--0-----0-----0-----0-----3-----------5----------|
    .     .     .     .

Verse

  GTR I,II
d|-------------------------------------------------|
A|-------------------------------------------------|
F|-------------------------------------------------|
C|--0-----------------------------0--------0-------|
G|--0-----------------------------0--------0-------|
C|--0-----------------------------0--------0-------|

  GTR I,II
d|-------------------------------------------------|
A|-------------------------------------------------|
F|-------------------------------------------------|
C|--0-----------------------------0--------0-------|
G|--0-----------------------------0--------0-------|
C|--0-----------------------------0--------0-------|

  GTR I,II
d|-------------------------------------------------|
A|-------------------------------------------------|
F|-------------------------------------------------|
C|--3-----------------------------3--------3-------|
G|--3-----------------------------3--------3-------|
C|--3-----------------------------3--------3-------|

  GTR I,II
d|-------------------------------------------------|
A|-------------------------------------------------|
F|-------------------------------------------------|
C|--2-----------------------------2--------2-------|
G|--2-----------------------------2--------2-------|
C|--2-----------------------------2--------2-------|

  GTR I,II
d|-------------------------------------------------|
A|-------------------------------------------------|
F|-------------------------------------------------|
C|--0-----------------------------0--------0-------|
G|--0-----------------------------0--------0-------|
C|--0-----------------------------0--------0-------|

  GTR I,II
d|-------------------------------------------------|
A|-------------------------------------------------|
F|-------------------------------------------------|
C|--0-----------------------------0--------0-------|
G|--0-----------------------------0--------0-------|
C|--0-----------------------------0--------0-------|

  GTR I,II
d|-------------------------------------------------|
A|-------------------------------------------------|
F|-------------------------------------------------|
C|--3-----------------------------3--------3-------|
G|--3-----------------------------3--------3-------|
C|--3-----------------------------3--------3-------|

  GTR I,II
d|-------------------------------------------------|
A|-------------------------------------------------|
F|-------------------------------------------------|
C|--2----------------------------------------------|
G|--2----------------------------------------------|
C|--2----------------------------------------------|

Pre Chorus

  GTR I
d|-------------------------------------------------|
A|-------------------------------------------------|
F|----14-------13--------7-------------------------|
C|-----x--------x--------x-------------------------|
G|----12-------11--------5-------------------------|
C|--0--------0--------0----------------------------|
 |                                                
 |GTR II
d|-------------------------------------------------|
A|-------------------------------------------------|
F|-------------------------------------------------|
C|-------------------------------------------------|
G|--0-----0-----0--0-----0--0-----0-----0-----0----|
C|--0-----0-----0--0-----0--0-----0-----0-----0----|
    .     .     .  .     .  .     .     .     .

  GTR I
d|-------------------------------------------------|
A|-------------------------------------------------|
F|--7----------------------10----------12----------|
C|--x-----------------------x-----------x----------|
G|--5-----------------------8----------10----------|
C|-------------------------------------------------|
 |                         
 |GTR II
d|-------------------------------------------------|
A|-------------------------------------------------|
F|-------------------------------------------------|
C|--------------------------3-----------5----------|
G|--0-----0-----0-----0-----3-----------5----------|
C|--0-----0-----0-----0-----3-----------5----------|
    .     .     .     .

  GTR I
d|-------------------------------------------------|
A|-------------------------------------------------|
F|----14-------13--------7-------------------------|
C|-----x--------x--------x-------------------------|
G|----12-------11--------5-------------------------|
C|--0--------0--------0----------------------------|
 |                                                
 |GTR II
d|-------------------------------------------------|
A|-------------------------------------------------|
F|-------------------------------------------------|
C|-------------------------------------------------|
G|--0-----0-----0--0-----0--0-----0-----0-----0----|
C|--0-----0-----0--0-----0--0-----0-----0-----0----|
    .     .     .  .     .  .     .     .     .

  GTR I,II
d|-------------------------------------------------|
A|-------------------------------------------------|
F|--5-----5-----5-----5-----5-----5-----5-----5----|
C|--5-----5-----5-----5-----5-----5-----5-----5----|
G|--3-----3-----3-----3-----3-----3-----3-----3----|
C|-------------------------------------------------|

Chorus

  GTR I
d|-------------------------------------------------|
A|-------------------------------------------------|
F|-10----10----10----10----10----10----10----10----|
C|--x-----x-----x-----x-----x-----x-----x-----x----|
G|--8-----8-----8-----8-----8-----8-----8-----8----|
C|-------------------------------------------------|
 |
 |GTR II
d|-------------------------------------------------|
A|-------------------------------------------------|
F|--3-----3-----3-----3-----3-----3-----3-----3----|
C|--3-----3-----3-----3-----3-----3-----3-----3----|
G|--1-----1-----1-----1-----1-----1-----1-----1----|
C|-------------------------------------------------|

  GTR I
d|-------------------------------------------------|
A|-------------------------------------------------|
F|-14----14----14----14----12----12----12----12----|
C|--x-----x-----x-----x-----x-----x-----x-----x----|
G|-12----12----12----12----10----10----10----10----|
C|-------------------------------------------------|
 |
 |GTR II
d|-------------------------------------------------|
A|-------------------------------------------------|
F|--------------------------5-----5-----5-----5----|
C|--3-----3-----3-----3-----5-----5-----5-----5----|
G|--3-----3-----3-----3-----3-----3-----3-----3----|
C|--3-----3-----3-----3----------------------------|

  GTR I
d|-------------------------------------------------|
A|-------------------------------------------------|
F|-10----10----10----10----10----10----10----10----|
C|--x-----x-----x-----x-----x-----x-----x-----x----|
G|--8-----8-----8-----8-----8-----8-----8-----8----|
C|-------------------------------------------------|
 |
 |GTR II
d|-------------------------------------------------|
A|-------------------------------------------------|
F|--3-----3-----3-----3-----3-----3-----3-----3----|
C|--3-----3-----3-----3-----3-----3-----3-----3----|
G|--1-----1-----1-----1-----1-----1-----1-----1----|
C|-------------------------------------------------|

  GTR I
d|-------------------------------------------------|
A|-------------------------------------------------|
F|-14----14----14----14----12----12----12----12----|
C|--x-----x-----x-----x-----x-----x-----x-----x----|
G|-12----12----12----12----10----10----10----10----|
C|-------------------------------------------------|
 |
 |GTR II
d|-------------------------------------------------|
A|-------------------------------------------------|
F|--------------------------5-----5-----5-----5----|
C|--3-----3-----3-----3-----5-----5-----5-----5----|
G|--3-----3-----3-----3-----3-----3-----3-----3----|
C|--3-----3-----3-----3----------------------------|

  GTR I
d|-------------------------------------------------|
A|-------------------------------------------------|
F|-10----10----10----10----10----10----10----10----|
C|--x-----x-----x-----x-----x-----x-----x-----x----|
G|--8-----8-----8-----8-----8-----8-----8-----8----|
C|-------------------------------------------------|
 |
 |GTR II
d|-------------------------------------------------|
A|-------------------------------------------------|
F|--3-----3-----3-----3-----3-----3-----3-----3----|
C|--3-----3-----3-----3-----3-----3-----3-----3----|
G|--1-----1-----1-----1-----1-----1-----1-----1----|
C|-------------------------------------------------|

  GTR I
d|-------------------------------------------------|
A|-------------------------------------------------|
F|-14----14----14----14----12----12----12----12----|
C|--x-----x-----x-----x-----x-----x-----x-----x----|
G|-12----12----12----12----10----10----10----10----|
C|-------------------------------------------------|
 |
 |GTR II
d|-------------------------------------------------|
A|-------------------------------------------------|
F|--------------------------5-----5-----5-----5----|
C|--3-----3-----3-----3-----5-----5-----5-----5----|
G|--3-----3-----3-----3-----3-----3-----3-----3----|
C|--3-----3-----3-----3----------------------------|

  GTR I
d|-------------------------------------------------|
A|-------------------------------------------------|
F|-10----10----10----10----10----10----10----10----|
C|--x-----x-----x-----x-----x-----x-----x-----x----|
G|--8-----8-----8-----8-----8-----8-----8-----8----|
C|-------------------------------------------------|
 |
 |GTR II
d|-------------------------------------------------|
A|-------------------------------------------------|
F|--3-----3-----3-----3-----3-----3-----3-----3----|
C|--3-----3-----3-----3-----3-----3-----3-----3----|
G|--1-----1-----1-----1-----1-----1-----1-----1----|
C|-------------------------------------------------|

  GTR I
d|-------------------------------------------------|
A|-------------------------------------------------|
F|-14----14----14----14----12----12----12----12----|
C|--x-----x-----x-----x-----x-----x-----x-----x----|
G|-12----12----12----12----10----10----10----10----|
C|-------------------------------------------------|
 |
 |GTR II
d|-------------------------------------------------|
A|-------------------------------------------------|
F|--------------------------5-----5-----5-----5----|
C|--3-----3-----3-----3-----5-----5-----5-----5----|
G|--3-----3-----3-----3-----3-----3-----3-----3----|
C|--3-----3-----3-----3----------------------------|

Post Chorus

  GTR III
d|-------------------------------------------------|
A|-------------------------------------------------|
F|----14-------13--------7-------------------------|
C|-----x--------x--------x-------------------------|
G|----12-------11--------5--------------0-----0--0-|
C|--0--------0--------0-----------------0-----0--0-|
                                        .     .  .

  GTR III
d|-------------------------------------------------|
A|-------------------------------------------------|
F|--7----------------------10----------12----------|
C|--x-----------------------x-----------x----------|
G|--5-----------0-----0--0--8----------10----------|
C|--------------0-----0--0-------------------------|
                .     .  .

Verse 2

  GTR I,II
d|-------------------------------------------------|
A|-------------------------------------------------|
F|-------------------------------------------------|
C|--0-----------------------------0--------0-------|
G|--0-----------------------------0--------0-------|
C|--0-----------------------------0--------0-------|

  GTR I,II
d|-------------------------------------------------|
A|-------------------------------------------------|
F|-------------------------------------------------|
C|--0-----------------------------0--------0-------|
G|--0-----------------------------0--------0-------|
C|--0-----------------------------0--------0-------|

  GTR I,II
d|-------------------------------------------------|
A|-------------------------------------------------|
F|-------------------------------------------------|
C|--3-----------------------------3--------3-------|
G|--3-----------------------------3--------3-------|
C|--3-----------------------------3--------3-------|

  GTR I,II
d|-------------------------------------------------|
A|-------------------------------------------------|
F|-------------------------------------------------|
C|--2-----------------------------2--------2-------|
G|--2-----------------------------2--------2-------|
C|--2-----------------------------2--------2-------|

  GTR I
d|-------------------------------------------------|
A|-------------------------------------------------|
F|--7-----------------------------7--------7-------|
C|--x-----------------------------x--------x-------|
G|--5-----------------------------5--------5-------|
C|-------------------------------------------------|
 |
 |GTR II
d|-------------------------------------------------|
A|-------------------------------------------------|
F|-------------------------------------------------|
C|--0-----------------------------0--------0-------|
G|--0-----------------------------0--------0-------|
C|--0-----------------------------0--------0-------|

  GTR I
d|-------------------------------------------------|
A|-------------------------------------------------|
F|--7-----------------------------7--------7-------|
C|--x-----------------------------x--------x-------|
G|--5-----------------------------5--------5-------|
C|-------------------------------------------------|
 |
 |GTR II
d|-------------------------------------------------|
A|-------------------------------------------------|
F|-------------------------------------------------|
C|--0-----------------------------0--------0-------|
G|--0-----------------------------0--------0-------|
C|--0-----------------------------0--------0-------|

  GTR I
d|-------------------------------------------------|
A|-------------------------------------------------|
F|-14----------------------------14-------14-------|
C|--x-----------------------------x--------x-------|
G|-12----------------------------12-------12-------|
C|-------------------------------------------------|
 |
 |GTR II
d|-------------------------------------------------|
A|-------------------------------------------------|
F|-------------------------------------------------|
C|--3-----------------------------3--------3-------|
G|--3-----------------------------3--------3-------|
C|--3-----------------------------3--------3-------|

  GTR I
d|-------------------------------------------------|
A|-------------------------------------------------|
F|-13----------------------------------------------|
C|--x----------------------------------------------|
G|-11----------------------------------------------|
C|-------------------------------------------------|
 |
 |GTR II
d|-------------------------------------------------|
A|-------------------------------------------------|
F|-------------------------------------------------|
C|--2----------------------------------------------|
G|--2----------------------------------------------|
C|--2----------------------------------------------|

Pre Chorus
Chorus
Pre Chorus

Interlude (now 3/4 time)

  GTR II
d|-------------------------------------|-------------------------------------|
A|-------------------------------------|-------------------------------------|
F|-------------------------------------|-------------------------------------|
C|-------------------------------------|--3-----------3----------------------|
G|--------------------0-----3-----5----|--------5-----------5~---------------|
C|--0-----3-----5----------------------|-------------------------------------|

  GTR I
d|-------------------------------------|-------------------------------------|
A|-------------------------------------|-------------------------------------|
F|-------------------------------------|-------------------------------------|
C|--0----------------------------------|-------------------------------------|
G|--0----------------------------------|-------------------------------------|
C|--0----------------------------------|-------------------------------------|
 |
 |GTR II
d|-------------------------------------|-------------------------------------|
A|-------------------------------------|-------------------------------------|
F|-------------------------------------|-------------------------------------|
C|-------------------------------------|--3-----------3----------------------|
G|--------------------0-----3-----5----|--------5-----------5~---------------|
C|--0-----3-----5----------------------|-------------------------------------|

   |-------------TRM-----------------|   |-------------TRM-----------------|
d|-------------------------------------|-------------------------------------|
A|-------------------------------------|-------------------------------------|
F|-14-14-14-14-14-14-14-14-14-14-14-14-|-14-14-14-14-14-14-14\---------------|
C|-------------------------------------|-------------------------------------|
G|-------------------------------------|-------------------------------------|
C|-------------------------------------|-------------------------------------|
 |
 |GTR II
d|-------------------------------------|-------------------------------------|
A|-------------------------------------|-------------------------------------|
F|-------------------------------------|-------------------------------------|
C|-------------------------------------|--3-----------3----------------------|
G|--------------------0-----3-----5----|--------5-----------5~---------------|
C|--0-----3-----5----------------------|-------------------------------------|

   |-------------TRM-----------------|   |-------------TRM-----------------|
d|-------------------------------------|-------------------------------------|
A|-------------------------------------|-------------------------------------|
F|-14-14-14-14-14-14-14-14-14-14-14-14-|-14-14-14-14-14-14-14\---------------|
C|-------------------------------------|-------------------------------------|
G|-------------------------------------|-------------------------------------|
C|-------------------------------------|-------------------------------------|
 |
 |GTR II
d|-------------------------------------|-------------------------------------|
A|-------------------------------------|-------------------------------------|
F|-------------------------------------|-------------------------------------|
C|-------------------------------------|--3-----------3----------------------|
G|--------------------0-----3-----5----|--------5-----------5~---------------|
C|--0-----3-----5----------------------|-------------------------------------|

   |-------------TRM-----------------|   |-------------TRM-----------------|
d|-------------------------------------|-------------------------------------|
A|-------------------------------------|-------------------------------------|
F|-14-14-14-14-14-14-14-14-14-14-14-14-|-14-14-14-14-14-14-14\---------------|
C|-------------------------------------|-------------------------------------|
G|-------------------------------------|-------------------------------------|
C|-------------------------------------|-------------------------------------|
 |
 |GTR II
d|-------------------------------------|-------------------------------------|
A|-------------------------------------|-------------------------------------|
F|-------------------------------------|-------------------------------------|
C|-------------------------------------|--3-----------3----------------------|
G|--------------------0-----3-----5----|--------5-----------5~---------------|
C|--0-----3-----5----------------------|-------------------------------------|

  GTR I,II
d|-------------------------------------|-------------------------------------|
A|-------------------------------------|-------------------------------------|
F|-------------------------------------|-------------------------------------|
C|--0----------------------------------|-------------------------------------|
G|--0----------------------------------|-------------------------------------|
C|--0----------------------------------|-------------------------------------|

Bridge (now 4/4 time)

  GTR I,II
d|-------------------------------------------------|
A|-------------------------------------------------|
F|-------------------------------------------------|
C|--0----------------------------------------------|
G|--0----------------------------------------------|
C|--0----------------------------------------------|

  GTR I
d|-------------------------------------------------|
A|-------------------------------------------------|
F|--7-----------------------------7--------7-------|
C|--x-----------------------------x--------x-------|
G|--5-----------------------------5--------5-------|
C|-------------------------------------------------|
 |
 |GTR II
d|-------------------------------------------------|
A|-------------------------------------------------|
F|-------------------------------------------------|
C|--0-----------------------------0--------0-------|
G|--0-----------------------------0--------0-------|
C|--0-----------------------------0--------0-------|

  GTR I
d|-------------------------------------------------|
A|-------------------------------------------------|
F|--7-----------------------------7--------7-------|
C|--x-----------------------------x--------x-------|
G|--5-----------------------------5--------5-------|
C|-------------------------------------------------|
 |
 |GTR II
d|-------------------------------------------------|
A|-------------------------------------------------|
F|-------------------------------------------------|
C|--0-----------------------------0--------0-------|
G|--0-----------------------------0--------0-------|
C|--0-----------------------------0--------0-------|

  GTR I
d|-------------------------------------------------|
A|-------------------------------------------------|
F|-14----------------------------14-------14-------|
C|--x-----------------------------x--------x-------|
G|-12----------------------------12-------12-------|
C|-------------------------------------------------|
 |
 |GTR II
d|-------------------------------------------------|
A|-------------------------------------------------|
F|-------------------------------------------------|
C|--3-----------------------------3--------3-------|
G|--3-----------------------------3--------3-------|
C|--3-----------------------------3--------3-------|

  GTR I
d|-------------------------------------------------|
A|-------------------------------------------------|
F|-13----------------------------------------------|
C|--x----------------------------------------------|
G|-11----------------------------------------------|
C|-------------------------------------------------|
 |
 |GTR II
d|-------------------------------------------------|
A|-------------------------------------------------|
F|-------------------------------------------------|
C|--2----------------------------------------------|
G|--2----------------------------------------------|
C|--2----------------------------------------------|

Chorus    - 2x
Pre Verse - 1x

Outro

  GTR I
d|-------------------------------------------------|
A|-------------------------------------------------|
F|----14-------13--------7-------------------------|
C|-----x--------x--------x-------------------------|
G|----12-------11--------5-------------------------|
C|--0--------0--------0----------------------------|
 |                                                
 |GTR II
d|-------------------------------------------------|
A|-------------------------------------------------|
F|-------------------------------------------------|
C|--0----------------------------------------------|
G|--0----------------------------------------------|
C|--0----------------------------------------------|
                                                
  GTR I
d|-------------------------------------------------|
A|-------------------------------------------------|
F|--7----------------------10----------12----------|
C|--x-----------------------x-----------x----------|
G|--5-----------------------8----------10----------|
C|-------------------------------------------------|
 |                         
 |GTR II
d|-------------------------------------------------|
A|-------------------------------------------------|
F|-------------------------------------------------|
C|--------------------------3-----------5----------|
G|--------------------------3-----------5----------|
C|--------------------------3-----------5----------|
                         
  GTR I
d|-------------------------------------------------|
A|-------------------------------------------------|
F|----14-------13--------7-------------------------|
C|-----x--------x--------x-------------------------|
G|----12-------11--------5-------------------------|
C|--0--------0--------0----------------------------|
 |                                                
 |GTR II
d|-------------------------------------------------|
A|-------------------------------------------------|
F|-------------------------------------------------|
C|--0----------------------------------------------|
G|--0----------------------------------------------|
C|--0----------------------------------------------|
                                                
  GTR I
d|-------------------------------------------------|
A|-------------------------------------------------|
F|--7----------------------10----------12----------|
C|--x-----------------------x-----------x----------|
G|--5-----------------------8----------10----------|
C|-------------------------------------------------|
 |                         
 |GTR II
d|-------------------------------------------------|
A|-------------------------------------------------|
F|-------------------------------------------------|
C|--------------------------3-----------5----------|
G|--------------------------3-----------5----------|
C|--------------------------3-----------5----------|

  GTR I
d|-------------------------------------------------|
A|-------------------------------------------------|
F|--7----------------------------------------------|
C|--x----------------------------------------------|
G|--5----------------------------------------------|
C|-------------------------------------------------|
 |
 |GTR II
d|-------------------------------------------------|
A|-------------------------------------------------|
F|-------------------------------------------------|
C|--0----------------------------------------------|
G|--0----------------------------------------------|
C|--0----------------------------------------------|


| b  bend
| r  release bend
|trp triplet
|PH. pinch harmonic
|fbk feedback
| .  palm-mute
| /  slide up
| \  slide down
| h  hammer-on
| p  pull-off
| ~  vibrato
|(7) harmonic
| x  Mute note
===============================================================================

            
            
Suggest correction
Creating personal tab
Creating personal tab
You can edit any tab online and save it as your Personal.

You can edit, replace or remove any tab part or add personal notes – all changes will be seen only by you.

Personal tabs can be accessed anytime from any device, even offline.
Learn more »
Give kudos to tab author, rate the tab!
1 2 3 4 5
comments
print report bad tab
guest
You may want to rate the tab now too:
select rating
Wanna post a correction for this tab? Suggest correction