Oops, an error
Loading. Please wait.

Carry On intro tab

version 2
version 2

Intro

  • Includes details about this version of a tab.

Interactive

13 views 3 this week
no commentswrite comment
1 2 3 4 5
3 more votes to show rating
add to favorites
×
Save as Personal and add changes to this tab that will be seen only by you. Learn more ›
×
You can save this tab as Personal to edit and correct it or add notes. All changes will be seen only by you. Learn more »
launch autoscroll
font size
0
reset
how to read this tab
guitar tuner
edit
Autoscroll
slow
fast
+/-
esc
set tempo
stop
About this tab version
Includes details about this version of a tab. Was this info helpful? Yes No
Crash into reality, 
The truth is that we'll always suffer.
This is our reality
And know that we will always suffer.

We'll overcome this world
And pray for better days.

If you feel like giving up baby well don't turn around
Be strong, hold on
(Well don't turn around)
We will carry on
I'll take your burdens upon my shoulders

I'll be there for you
I'll be there for every breath you take
I'll be there through every move you make

We'll overcome this world

And pray for better days.

Facing this reality, 
We always look for something better.
Forget this reality
For we were meant for something greater.

If you feel like giving up baby well don't turn around

Hold on! 
If you feel like giving up baby well don't turn around
Be strong, hold on
(Well don't turn around)
We will carry on
I'll take your burdens upon my shoulders
We will carry on

By the grace of God, we will carry on!

guitar1 - contibutor :jeebreel
     E   E  E   Q     Q     E   
D|---------8--10----13----12--|
A|--8--10---------------------|
F|----------------------------|
C|----------------------------|
G|----------------------------|
C|----------------------------|


    E  Q    Q     Q    E    
D|--L--8---------------8S--|
A|----------8--------------|
F|---------------10--------|
C|-------------------------|
G|-------------------------|
C|-------------------------|


     E  E   H.            
D|--10--8~--L------------|
A|-----------------------|
F|-----------------------|
C|-----------------------|
G|-----------------------|
C|-----------------------|


    E   E  E   Q    Q.      
D|-------------------------|
A|--8--10--8---------------|
F|------------10----9------|
C|-------------------------|
G|-------------------------|
C|-------------------------|


    E   E  E   Q     Q     E   
D|---------8--10----13----12--|
A|--8--10---------------------|
F|----------------------------|
C|----------------------------|
G|----------------------------|
C|----------------------------|


    E  Q    Q     Q    E    
D|--L--8---------------8S--|
A|----------8--------------|
F|---------------10--------|
C|-------------------------|
G|-------------------------|
C|-------------------------|


     E  E   H.            
D|--10--8~--L------------|
A|-----------------------|
F|-----------------------|
C|-----------------------|
G|-----------------------|
C|-----------------------|


    E   E  E   Q    Q.      
D|-------------------------|
A|--8--10--8---------------|
F|------------10----9------|
C|-------------------------|
G|-------------------------|
C|-------------------------|


     W                                      
D|---------------------|-------------------|
A|---------------------|-------------------|
F|--10~----------------|-------------------|
C|---------------------|-------------------|
G|---------------------|-------------------|
C|---------------------|-------------------|


D|-------------------|
A|-------------------|
F|-------------------|
C|-------------------|
G|-------------------|
C|-------------------|


     E   E   E   E   E   E   E   E   
D|--12--13--13--12--13--13--12--13--|
A|----------------------------------|
F|----------------------------------|
C|----------------------------------|
G|----------------------------------|
C|----------------------------------|


     E   E   E   E   E   E   Q     
D|--13--12--13--13--12--13--13----|
A|--------------------------------|
F|--------------------------------|
C|--------------------------------|
G|--------------------------------|
C|--------------------------------|


     E   E   E   E   E   E   E   E   
D|--12--13--13--12--13--13--12--13--|
A|----------------------------------|
F|----------------------------------|
C|----------------------------------|
G|----------------------------------|
C|----------------------------------|


     E   E   E   E   E   E   Q     
D|--13--12--13--13--12--13--13----|
A|--------------------------------|
F|--------------------------------|
C|--------------------------------|
G|--------------------------------|
C|--------------------------------|


     E    E   Q     E  Q.      
D|----------------------------|
A|----------------------------|
F|----------------------------|
C|--10S--12--10---------------|
G|-----------------12--8------|
C|----------------------------|


     E    E   Q     E  Q.      
D|----------------------------|
A|----------------------------|
F|----------------------------|
C|--10S--12--10---------------|
G|-----------------12--8------|
C|----------------------------|


     E    E   Q     E   Q.      
D|-----------------------------|
A|-----------------------------|
F|--10S--12--10----------------|
C|-----------------12--10------|
G|-----------------------------|
C|-----------------------------|


     E    E   Q     Q     Q     
D|-----------------------------|
A|-----------------------------|
F|--10S--12--12----10----10----|
C|-----------------------------|
G|-----------------------------|
C|-----------------------------|


     E    E   Q     E  Q.      
D|----------------------------|
A|----------------------------|
F|----------------------------|
C|--10S--12--10---------------|
G|-----------------12--8------|
C|----------------------------|


     E    E   Q     E  Q.      
D|----------------------------|
A|----------------------------|
F|----------------------------|
C|--10S--12--10---------------|
G|-----------------12--8------|
C|----------------------------|


     E    E   Q     E   Q.      
D|-----------------------------|
A|-----------------------------|
F|--10S--12--10----------------|
C|-----------------12--10------|
G|-----------------------------|
C|-----------------------------|


     E    E   Q     Q     Q     
D|-----------------------------|
A|-----------------------------|
F|--10S--12--12----10----10----|
C|-----------------------------|
G|-----------------------------|
C|-----------------------------|


    E   E  E   Q     Q     E   
D|---------8--10----13----12--|
A|--8--10---------------------|
F|----------------------------|
C|----------------------------|
G|----------------------------|
C|----------------------------|


    E  Q    Q     Q    E    
D|--L--8---------------8S--|
A|----------8--------------|
F|---------------10--------|
C|-------------------------|
G|-------------------------|
C|-------------------------|


     E  E   H.            
D|--10--8~--L------------|
A|-----------------------|
F|-----------------------|
C|-----------------------|
G|-----------------------|
C|-----------------------|


    E   E  E   Q    Q.      
D|-------------------------|
A|--8--10--8---------------|
F|------------10----9------|
C|-------------------------|
G|-------------------------|
C|-------------------------|


    E   E  E   Q     Q     E   
D|---------8--10----13----12--|
A|--8--10---------------------|
F|----------------------------|
C|----------------------------|
G|----------------------------|
C|----------------------------|


    E  Q    Q     Q    E    
D|--L--8---------------8S--|
A|----------8--------------|
F|---------------10--------|
C|-------------------------|
G|-------------------------|
C|-------------------------|


     E  E   H.            
D|--10--8~--L------------|
A|-----------------------|
F|-----------------------|
C|-----------------------|
G|-----------------------|
C|-----------------------|


    E   E  E   Q    Q.      
D|-------------------------|
A|--8--10--8---------------|
F|------------10----9------|
C|-------------------------|
G|-------------------------|
C|-------------------------|


    E   E  Q     S  E.   Q      
D|-----------------------------|
A|-----------------------------|
F|---------9----10-12---10~----|
C|--8--10----------------------|
G|-----------------------------|
C|-----------------------------|


    Q    Q     Q     Q     
D|------------------------|
A|------------------------|
F|--L----9----------------|
C|------------10----10----|
G|------------------------|
C|------------------------|


    Q    H        Q     
D|---------------------|
A|---------------------|
F|----------------9----|
C|--L----7-------------|
G|---------------------|
C|---------------------|


     Q    Q     H         
D|-----------------------|
A|-----------------------|
F|--10----9--------------|
C|-------------10--------|
G|-----------------------|
C|-----------------------|


    E  E   E  E  E  E  E  E   
D|---------------------------|
A|---------------------------|
F|--------10-----9--7-----5--|
C|--0--0------0--------0-----|
G|---------------------------|
C|---------------------------|


    E  E  E  E  E  E  E  E   
D|--------------------------|
A|--------------------------|
F|-----7-----7--9--7--5--7--|
C|--0-----0-----------------|
G|--------------------------|
C|--------------------------|


    E  E   E  E  E  E  E  E   
D|---------------------------|
A|---------------------------|
F|--------10-----9--7-----5--|
C|--0--0------0--------0-----|
G|---------------------------|
C|---------------------------|


     E   E   E  H        E   
D|--------------------------|
A|--------------------------|
F|--10--10--10--9--------L--|
C|---x---x---x--x-----------|
G|---8---8---8--7--------L--|
C|--------------------------|


    E   E  Q     S  E.   Q      
D|-----------------------------|
A|-----------------------------|
F|---------9----10-12---10~----|
C|--8--10----------------------|
G|-----------------------------|
C|-----------------------------|


    Q    Q     Q     Q     
D|------------------------|
A|------------------------|
F|--L----9----------------|
C|------------10----10----|
G|------------------------|
C|------------------------|


    Q    H        Q     
D|---------------------|
A|---------------------|
F|----------------9----|
C|--L----7-------------|
G|---------------------|
C|---------------------|


     Q    Q     H         
D|-----------------------|
A|-----------------------|
F|--10----9--------------|
C|-------------10--------|
G|-----------------------|
C|-----------------------|


    E  E   Q     Q    E  E   
D|--------------------------|
A|--------------------------|
F|--------------------------|
C|--------10----12----------|
G|--0--0--------------0--0--|
C|--0--0--------------0--0--|


     E   Q.     E  E  E  E   
D|--------------------------|
A|--------------------------|
F|--------------------------|
C|--14--15------------------|
G|--------------0--0--0--0--|
C|--------------0--0--0--0--|


    E  E   Q     Q    E  E   
D|--------------------------|
A|--------------------------|
F|--------------------------|
C|--------10----12----------|
G|--0--0--------------0--0--|
C|--0--0--------------0--0--|


     E   Q.     E  E  E  E   
D|--------------------------|
A|--------------------------|
F|--------------------------|
C|--14--15------------------|
G|--------------0--0--0--0--|
C|--------------0--0--0--0--|


    E   E  Q     S  E.   Q      
D|-----------------------------|
A|-----------------------------|
F|---------9----10-12---10~----|
C|--8--10----------------------|
G|-----------------------------|
C|-----------------------------|


    Q    Q     Q     Q     
D|------------------------|
A|------------------------|
F|--L----9----------------|
C|------------10----10----|
G|------------------------|
C|------------------------|


    Q    H        Q     
D|---------------------|
A|---------------------|
F|----------------9----|
C|--L----7-------------|
G|---------------------|
C|---------------------|


     Q    Q     H         
D|-----------------------|
A|-----------------------|
F|--10----9--------------|
C|-------------10--------|
G|-----------------------|
C|-----------------------|


    E  E   E  E  E  E  E  E   
D|---------------------------|
A|---------------------------|
F|--------10-----9--7-----5--|
C|--0--0------0--------0-----|
G|---------------------------|
C|---------------------------|


    E  E  E  E  E  E  E  E   
D|--------------------------|
A|--------------------------|
F|-----7-----7--9--7--5--7--|
C|--0-----0-----------------|
G|--------------------------|
C|--------------------------|


    E  E   E  E  E  E  E  E   
D|---------------------------|
A|---------------------------|
F|--------10-----9--7-----5--|
C|--0--0------0--------0-----|
G|---------------------------|
C|---------------------------|


     E   E   E  H        E   
D|--------------------------|
A|--------------------------|
F|--10--10--10--9--------L--|
C|---x---x---x--x-----------|
G|---8---8---8--7--------L--|
C|--------------------------|


    E   E  Q     S  E.   Q      
D|-----------------------------|
A|-----------------------------|
F|---------9----10-12---10~----|
C|--8--10----------------------|
G|-----------------------------|
C|-----------------------------|


    Q    Q     Q     Q     
D|------------------------|
A|------------------------|
F|--L----9----------------|
C|------------10----10----|
G|------------------------|
C|------------------------|


    Q    H        Q     
D|---------------------|
A|---------------------|
F|----------------9----|
C|--L----7-------------|
G|---------------------|
C|---------------------|


     Q    Q     H         
D|-----------------------|
A|-----------------------|
F|--10----9--------------|
C|-------------10--------|
G|-----------------------|
C|-----------------------|


    E  E   Q     Q    E  E   
D|--------------------------|
A|--------------------------|
F|--------------------------|
C|--------10----12----------|
G|--0--0--------------0--0--|
C|--0--0--------------0--0--|


     E   Q.     E  E  E  E   
D|--------------------------|
A|--------------------------|
F|--------------------------|
C|--14--15------------------|
G|--------------0--0--0--0--|
C|--------------0--0--0--0--|


    E  E   Q     Q    E  E   
D|--------------------------|
A|--------------------------|
F|--------------------------|
C|--------10----12----------|
G|--0--0--------------0--0--|
C|--0--0--------------0--0--|


     E   Q.     E  E  E  E   
D|--------------------------|
A|--------------------------|
F|--------------------------|
C|--14--15------------------|
G|--------------0--0--0--0--|
C|--------------0--0--0--0--|


    E  E   Q     Q    E  E   
D|--------------------------|
A|--------------------------|
F|--------------------------|
C|--------10----12----------|
G|--0--0--------------0--0--|
C|--0--0--------------0--0--|


     E   Q.     E  E  E  E   
D|--------------------------|
A|--------------------------|
F|--------------------------|
C|--14--15------------------|
G|--------------0--0--0--0--|
C|--------------0--0--0--0--|


    E  E   Q     Q    E  E   
D|--------------------------|
A|--------------------------|
F|--------------------------|
C|--------10----12----------|
G|--0--0--------------0--0--|
C|--0--0--------------0--0--|


     E   Q.     E  E  E  E                     
D|--------------------------|-----|-----|-----|
A|--------------------------|-----|-----|-----|
F|--------------------------|-----|-----|-----|
C|--14--15------------------|-----|-----|-----|
G|--------------0--0--0--0--|-----|-----|-----|
C|--------------0--0--0--0--|-----|-----|-----|

guitar 2 -----------------------------------------------------------
Track 2 : contributor jeebreel 2
      E   E   E   Q     Q     E   
D|----------13--15----17----15--|
A|--13--15----------------------|
F|------------------------------|
C|------------------------------|
G|------------------------------|
C|------------------------------|


    E   Q     Q     Q     E    
D|--L--13----------------12S--|
A|-----------17---------------|
F|-----------------17---------|
C|----------------------------|
G|----------------------------|
C|----------------------------|


     E   E   H.            
D|--13--12~--L------------|
A|------------------------|
F|------------------------|
C|------------------------|
G|------------------------|
C|------------------------|


     E   E   E   Q     Q.      
D|----------------------------|
A|--17--18--17----------------|
F|--------------19----17------|
C|----------------------------|
G|----------------------------|
C|----------------------------|


     E   E   E   Q     Q     E   
D|----------13--15----17----15--|
A|--13--15----------------------|
F|------------------------------|
C|------------------------------|
G|------------------------------|
C|------------------------------|


    E   Q     Q     Q     E    
D|--L--13----------------12S--|
A|-----------17---------------|
F|-----------------17---------|
C|----------------------------|
G|----------------------------|
C|----------------------------|


     E   E   H.            
D|--13--12~--L------------|
A|------------------------|
F|------------------------|
C|------------------------|
G|------------------------|
C|------------------------|


     E   E   E   Q     Q.      
D|----------------------------|
A|--17--18--17----------------|
F|--------------19----17------|
C|----------------------------|
G|----------------------------|
C|----------------------------|


     W                    W                 
D|---------------------|-------------------|
A|---------------------|-------------------|
F|--19~----------------|-------------------|
C|---------------------|--5----------------|
G|---------------------|--5----------------|
C|---------------------|--5----------------|


    H.           E  E     W                 
D|---------------------|-------------------|
A|---------------------|-------------------|
F|---------------------|-------------------|
C|--3------------L--5--|--0----------------|
G|--3------------L--5--|--0----------------|
C|--3------------L--5--|--0----------------|


    W                 
D|-------------------|
A|-------------------|
F|-------------------|
C|--0----------------|
G|--0----------------|
C|--0----------------|


     E   E   E   E   E   E   E   E   
D|--15--17--17--15--17--17--15--17--|
A|----------------------------------|
F|----------------------------------|
C|----------------------------------|
G|----------------------------------|
C|----------------------------------|


     E   E   E   E   E   E   Q             
D|--17--15--17--17--15--17--17----|-------|
A|--------------------------------|-------|
F|--------------------------------|-------|
C|--------------------------------|-------|
G|--------------------------------|-------|
C|--------------------------------|-------|


D|-------|-------|-------|-------|-------|
A|-------|-------|-------|-------|-------|
F|-------|-------|-------|-------|-------|
C|-------|-------|-------|-------|-------|
G|-------|-------|-------|-------|-------|
C|-------|-------|-------|-------|-------|


D|-------|-------|
A|-------|-------|
F|-------|-------|
C|-------|-------|
G|-------|-------|
C|-------|-------|


    S S E  E  S S E  E  S S E   
D|-----------------------------|
A|-----------------------------|
F|-----------------------------|
C|-----------------------------|
G|--8-8-8-----8-8-8-----8-8-8--|
C|--8-8-8-----8-8-8-----8-8-8--|


    E  S S E  E  S S E  Q     
D|---------------------------|
A|---------------------------|
F|---------------------------|
C|---------------------------|
G|-----8-8-8-----8-8-8-------|
C|-----8-8-8-----8-8-8-------|


    Q    E  E  E  E  E  E   
D|-------------------------|
A|-------------------------|
F|-------------------------|
C|-------------------------|
G|--5----5--5--5--5--5--5--|
C|--5----5--5--5--5--5--5--|


    Q    E  E  E  E  E  E   
D|-------------------------|
A|-------------------------|
F|-------------------------|
C|-------------------------|
G|--3----3--3--3--3--3--3--|
C|--3----3--3--3--3--3--3--|


    S S E  E  S S E  E  S S E   
D|-----------------------------|
A|-----------------------------|
F|-----------------------------|
C|-----------------------------|
G|--8-8-8-----8-8-8-----8-8-8--|
C|--8-8-8-----8-8-8-----8-8-8--|


    E  S S E  E  S S E  Q     
D|---------------------------|
A|---------------------------|
F|---------------------------|
C|---------------------------|
G|-----8-8-8-----8-8-8-------|
C|-----8-8-8-----8-8-8-------|


    Q    E  E  E  E  E  E   
D|-------------------------|
A|-------------------------|
F|-------------------------|
C|-------------------------|
G|--5----5--5--5--5--5--5--|
C|--5----5--5--5--5--5--5--|


    Q    E  E  E  E  E  E   
D|-------------------------|
A|-------------------------|
F|-------------------------|
C|-------------------------|
G|--3----3--3--3--3--3--3--|
C|--3----3--3--3--3--3--3--|


    Q    Q    E  E  E  E   
D|------------------------|
A|------------------------|
F|------------------------|
C|------------------------|
G|--8----8----8--8--8--8--|
C|--8----8----8--8--8--8--|


    Q    Q    E  E  E  E   
D|------------------------|
A|------------------------|
F|------------------------|
C|------------------------|
G|--L----8----8--8--8--8--|
C|--L----8----8--8--8--8--|


    Q    Q    E  E  E  E   
D|------------------------|
A|------------------------|
F|------------------------|
C|------------------------|
G|--8----8----8--8--8--8--|
C|--8----8----8--8--8--8--|


    Q    Q     E   E   E   E   
D|----------------------------|
A|----------------------------|
F|----------------------------|
C|----------------------------|
G|--L----8----10--10--10--10--|
C|--L----8----10--10--10--10--|


    E  E   E  E   E   E  E  E   
D|-----------------------------|
A|-----------------------------|
F|--------14-----12--10-----9--|
C|--0--0------0----------0-----|
G|-----------------------------|
C|-----------------------------|


    E   E  E   E   E   E  E   E   
D|-------------------------------|
A|-------------------------------|
F|-----10-----10--12--10--9--10--|
C|--0------0---------------------|
G|-------------------------------|
C|-------------------------------|


    E  E   E  E   E   E  E  E   
D|-----------------------------|
A|-----------------------------|
F|--------14-----12--10-----9--|
C|--0--0------0----------0-----|
G|-----------------------------|
C|-----------------------------|


     E   E   E   H        E   
D|---------------------------|
A|---------------------------|
F|--14--14--14--12--------L--|
C|---x---x---x---x-----------|
G|--12--12--12--10--------L--|
C|---------------------------|


    Q    Q    E  E  E  E   
D|------------------------|
A|------------------------|
F|------------------------|
C|------------------------|
G|--8----8----8--8--8--8--|
C|--8----8----8--8--8--8--|


    Q    Q    E  E  E  E   
D|------------------------|
A|------------------------|
F|------------------------|
C|------------------------|
G|--L----8----8--8--8--8--|
C|--L----8----8--8--8--8--|


    Q    Q    E  E  E  E   
D|------------------------|
A|------------------------|
F|------------------------|
C|------------------------|
G|--8----8----8--8--8--8--|
C|--8----8----8--8--8--8--|


    Q    Q     E   E   E   E   
D|----------------------------|
A|----------------------------|
F|----------------------------|
C|----------------------------|
G|--L----8----10--10--10--10--|
C|--L----8----10--10--10--10--|


    E  E  Q     Q    E  E   
D|-------------------------|
A|-------------------------|
F|--------9----10----------|
C|-------------------------|
G|--0--0-------------0--0--|
C|--0--0-------------0--0--|


     E   Q.     E  E  E  E   
D|--------------------------|
A|--------------------------|
F|--12--14------------------|
C|--------------------------|
G|--------------0--0--0--0--|
C|--------------0--0--0--0--|


    E  E  Q     Q    E  E   
D|-------------------------|
A|-------------------------|
F|--------9----10----------|
C|-------------------------|
G|--0--0-------------0--0--|
C|--0--0-------------0--0--|


     E   Q.     E  E  E  E   
D|--------------------------|
A|--------------------------|
F|--12--14------------------|
C|--------------------------|
G|--------------0--0--0--0--|
C|--------------0--0--0--0--|


    Q    Q    E  E  E  E   
D|------------------------|
A|------------------------|
F|------------------------|
C|------------------------|
G|--8----8----8--8--8--8--|
C|--8----8----8--8--8--8--|


    Q    Q    E  E  E  E   
D|------------------------|
A|------------------------|
F|------------------------|
C|------------------------|
G|--L----8----8--8--8--8--|
C|--L----8----8--8--8--8--|


    Q    Q    E  E  E  E   
D|------------------------|
A|------------------------|
F|------------------------|
C|------------------------|
G|--8----8----8--8--8--8--|
C|--8----8----8--8--8--8--|


    Q    Q     E   E   E   E   
D|----------------------------|
A|----------------------------|
F|----------------------------|
C|----------------------------|
G|--L----8----10--10--10--10--|
C|--L----8----10--10--10--10--|


    E  E   E  E   E   E  E  E   
D|-----------------------------|
A|-----------------------------|
F|--------14-----12--10-----9--|
C|--0--0------0----------0-----|
G|-----------------------------|
C|-----------------------------|


    E   E  E   E   E   E  E   E   
D|-------------------------------|
A|-------------------------------|
F|-----10-----10--12--10--9--10--|
C|--0------0---------------------|
G|-------------------------------|
C|-------------------------------|


    E  E   E  E   E   E  E  E   
D|-----------------------------|
A|-----------------------------|
F|--------14-----12--10-----9--|
C|--0--0------0----------0-----|
G|-----------------------------|
C|-----------------------------|


     E   E   E   H        E   
D|---------------------------|
A|---------------------------|
F|--14--14--14--12--------L--|
C|---x---x---x---x-----------|
G|--12--12--12--10--------L--|
C|---------------------------|


    Q    Q    E  E  E  E   
D|------------------------|
A|------------------------|
F|------------------------|
C|------------------------|
G|--8----8----8--8--8--8--|
C|--8----8----8--8--8--8--|


    Q    Q    E  E  E  E   
D|------------------------|
A|------------------------|
F|------------------------|
C|------------------------|
G|--L----8----8--8--8--8--|
C|--L----8----8--8--8--8--|


    Q    Q    E  E  E  E   
D|------------------------|
A|------------------------|
F|------------------------|
C|------------------------|
G|--8----8----8--8--8--8--|
C|--8----8----8--8--8--8--|


    Q    Q     E   E   E   E   
D|----------------------------|
A|----------------------------|
F|----------------------------|
C|----------------------------|
G|--L----8----10--10--10--10--|
C|--L----8----10--10--10--10--|


    E  E  Q     Q    E  E   
D|-------------------------|
A|-------------------------|
F|--------9----10----------|
C|-------------------------|
G|--0--0-------------0--0--|
C|--0--0-------------0--0--|


     E   Q.     E  E  E  E   
D|--------------------------|
A|--------------------------|
F|--12--14------------------|
C|--------------------------|
G|--------------0--0--0--0--|
C|--------------0--0--0--0--|


    E  E  Q     Q    E  E   
D|-------------------------|
A|-------------------------|
F|--------9----10----------|
C|-------------------------|
G|--0--0-------------0--0--|
C|--0--0-------------0--0--|


     E   Q.     E  E  E  E   
D|--------------------------|
A|--------------------------|
F|--12--14------------------|
C|--------------------------|
G|--------------0--0--0--0--|
C|--------------0--0--0--0--|


    E  E  Q     Q    E  E   
D|-------------------------|
A|-------------------------|
F|--------9----10----------|
C|-------------------------|
G|--0--0-------------0--0--|
C|--0--0-------------0--0--|


     E   Q.     E  E  E  E   
D|--------------------------|
A|--------------------------|
F|--12--14------------------|
C|--------------------------|
G|--------------0--0--0--0--|
C|--------------0--0--0--0--|


    E  E  Q     Q    E  E   
D|-------------------------|
A|-------------------------|
F|--------9----10----------|
C|-------------------------|
G|--0--0-------------0--0--|
C|--0--0-------------0--0--|


     E   Q.     E  E  E  E   
D|--------------------------|
A|--------------------------|
F|--12--14------------------|
C|--------------------------|
G|--------------0--0--0--0--|
C|--------------0--0--0--0--|


    S S E  Q    S S E  Q     
D|--------------------------|
A|--------------------------|
F|--------------------------|
C|--------------------------|
G|--0-0-0-------0-0-0-------|
C|--0-0-0-------0-0-0-------|


    Q    S S E  E  E  E  E   
D|--------------------------|
A|--------------------------|
F|--------------------------|
C|--------------------------|
G|-------0-0-0--0-----0-----|
C|-------0-0-0--0-----0-----|


    S S E  Q    S S E  Q     
D|--------------------------|
A|--------------------------|
F|--------------------------|
C|--------------------------|
G|--0-0-0-------0-0-0-------|
C|--0-0-0-------0-0-0-------|


    S S E  Q    S S E  Q                       
D|--------------------------|-----|-----|-----|
A|--------------------------|-----|-----|-----|
F|---------7-----------5----|-----|-----|-----|
C|---------x-----------x----|-----|-----|-----|
G|--0-0-0--5----0-0-0--3----|-----|-----|-----|
C|--0-0-0-------0-0-0-------|-----|-----|-----|



***********************************

| ~  Vibrato
| x  Dead note

************************************

            
            
Suggest correction
Creating personal tab
Creating personal tab
You can edit any tab online and save it as your Personal.

You can edit, replace or remove any tab part or add personal notes – all changes will be seen only by you.

Personal tabs can be accessed anytime from any device, even offline.
Learn more »
Give kudos to tab author, rate the tab!
1 2 3 4 5
comments
print report bad tab
guest
You may want to rate the tab now too:
select rating
Wanna post a correction for this tab? Suggest correction