Oops, an error
Loading. Please wait.

40 Days tab

version 2
version 2

Whole song

Interactive

2,131 views 1 this week
no commentswrite comment
1 2 3 4 5
3 more votes to show rating
add to favorites
×
Save as Personal and add changes to this tab that will be seen only by you. Learn more ›
×
You can save this tab as Personal to edit and correct it or add notes. All changes will be seen only by you. Learn more »
launch autoscroll
font size
0
reset
how to read this tab
guitar tuner
edit
Autoscroll
slow
fast
+/-
esc
set tempo
stop
Tuning: Drop D




INTRO
E|----------------------------------------------------------------------|
B|-------------13----------13-------------------13----------13----------|
G|-------10-------10----10----10----------10-------10----10----10-------| x2?
D|-12-12----12-------12----------12-12-12----12-------12----------12----|
A|----------------------------------------------------------------------|
D|----------------------------------------------------------------------|
                                                                        
E|-------------------------------------------------------------------------|
B|-------------------------------------------------------------------------|
G|---------------10101010---------------9-9-9/101010-----------------------|
D|-----------------------------------------------------8888888888888888888-|
A|-0000000000000-8-8-8-8--101010101010--7-7-7/8-8-8----8888888888888888888-|
D|-0000000000000----------101010101010-----------------8888888888888888888-|
PM ·············          ············


                                                                        
E|-------------------------------------------------------------------------|
B|---------------10101010---------------9-9-9/8-8-8------------------------|
G|-------------------------------------------------------------------------|
D|---------------------------------------------------888888888888888-------|
A|-0000000000000-8-8-8-8--101010101010--7-7-7/101010-888888888888888-------|
D|-0000000000000----------101010101010---------------888888888888888-------|
PM ·············          ············


VERSE
E|--------------------------------------------------------------------------|
B|--------------------------------------------------------------------------|
G|----------10-----------------10-----------------10------------------------|
D|-10-12-12----12-12--10-12-12----12-12--10-12-12----12-12------------------|
A|--------------------------------------------------------------------------|
D|--------------------------------------------------------------------------|
 |                                                                          |
E|------(1st)|-------(2nd)|-------(3rd)|------(4th)|-------(5th)|------(6th)|
B|-----------|------------|-13---------|-----------|------------|-----------|
G|-9h10p9----|-xx-9h10----|---12-12h14-|-xx-9h10---|-9h10p9-----|-xx-9h10---|
D|--------10-|------------|------------|-----------|--------10--|-----------|
A|-----------|------------|------------|-----------|------------|-----------|
D|-----------|------------|------------|-----------|------------|-----------|

E|--------------------------------------------------------------------------|
B|-----13--13----13--13----13--13----13--13----13--13----13--13----13--13---|
G|---10--10----10--10----10--10----10--10----10--10----10--10----10--10-----|
D|-12--------12--------12--------12--------12--------12--------12-----------|
A|--------------------------------------------------------------------------|
D|--------------------------------------------------------------------------|

Chorus

E|-------------------------------------------------------------------------|
B|-------------------------------------------------------------------------|
G|---------------10101010---------------9-9-9/101010-----------------------|
D|-----------------------------------------------------8888888888888888888-|
A|-0000000000000-8-8-8-8--101010101010--7-7-7/8-8-8----8888888888888888888-|
D|-0000000000000----------101010101010-----------------8888888888888888888-|
PM ·············          ············


                                                                        
E|-------------------------------------------------------------------------|
B|---------------10101010---------------9-9-9/8-8-8------------------------|
G|-------------------------------------------------------------------------|
D|---------------------------------------------------888888888888888-------|
A|-0000000000000-8-8-8-8--101010101010--7-7-7/101010-888888888888888-------|
D|-0000000000000----------101010101010---------------888888888888888-------|
PM ·············          ············


E|--------------------------------------------------------------------------|
B|--------------------------------------------------------------------------|
G|-----------1010101010-----------1212/9-9-9--------------------------------|
D|-5-5-5-5-5------------7-7-7-7-7-------------8888888888--------------------|
A|-5-5-5-5-5-8-8-8-8-8--7-7-7-7-7-1010/7-7-7--8888888888--------------------|
D|-5-5-5-5-5------------7-7-7-7-7-------------8888888888--------------------|

Repeat Verse

Repeat Chorus

Solo
E|--------------------------------------------------------------------------|
B|--------------------------------------------------------------------------|
G|-------------------10h12h14b-14-14-14p10-12p10-12-------------------------|
D|----------10h12h13--------------------------------12-10-12----------------|
A|-10h12h13-----------------------------------------------------------------|
D|--------------------------------------------------------------------------|
 |                                                                          |
E|--------------------------------------------------------------------------|
B|-18-17-15-13-13h15--------------------------------------------------------|
G|-------------------14-14h15p14-12-14-12h14p12-10-12-----------------------|
D|--------------------------------------------------------------------------|
A|--------------------------------------------------------------------------|
D|--------------------------------------------------------------------------|
 |                                                                          |
E|--------------------------------------------------------------------------|
B|--------------------------------------------------------------------------|
G|-9-10-9h10p9--------------------------------------------------------------|
D|-------------10----10/12-12-12/14-----------------------------------------|
A|----------------12--------------------------------------------------------|
D|--------------------------------------------------------------------------|

Breakdown
E|--------------------------------------------------------------------------|
B|--------------------------------------------------------------------------|
G|-10-14-14-14-10-12-14-12-10-7-7-7-7-x-9x9x9x9-x-10101010-x-12-------------|
D|-x--x--x--x--x--x--x--x--x--x-x-x-x-x-x-x-x-x-x-x-x-x-x--x-x--------------|
A|-8--12-12-12-8--10-12-10-8--5-5-5-5-x-7-7-7-7-x-8-8-8-8--x-12-------------|
D|--------------------------------------------------------------------------|
 |                                                                          |
E|--------------------------------------------------------------------------|
B|--------------------------------------------------------------------------|
G|-14-14-14-10-17-15-10-7--14--12--10---------------------------------------|
D|-x--x--x--x--x--x--x--x--x---x---x----------------------------------------|
A|-12-12-12-8--15-13-8--5--12--10--8----------------------------------------|
D|--------------------------------------------------------------------------|
 |                                                                          |
E|--------------------------------------------------------------------------|
B|--------------------------------------------------------------------------|
G|---------9h10p9-10-------10---9h10p9-10-----------------------------------|
D|-10/12-------------12----12-------------12-10-----------------------------|
A|--------------------------------------------------------------------------|
D|--------------------------------------------------------------------------|

Repeat Chorus

Final Solo
E|--------------------------------------------------------------------------|
B|--------------------------------------------------------------------------|
G|-9h10p9--------------------------------9h10p9-----------------------------|
D|--------10-10h12------------------------------10-10h12------------------10|
A|-----------------12-10-10-10/12-12brb-8----------------12-10-10-10/12-13--|
D|--------------------------------------------------------------------------|

Outro
                                                                          
E|----------------------------------------------------------------------|
B|-------------13----------13-------------------13----------13----------|
G|-------10-------10----10----10----------10-------10----10----10-------| x2?
D|-12-12----12-------12----------12-12-12----12-------12----------12----|
A|----------------------------------------------------------------------|
D|----------------------------------------------------------------------|

            
            
Suggest correction
Creating personal tab
Creating personal tab
You can edit any tab online and save it as your Personal.

You can edit, replace or remove any tab part or add personal notes – all changes will be seen only by you.

Personal tabs can be accessed anytime from any device, even offline.
Learn more »
Give kudos to tab author, rate the tab!
1 2 3 4 5
comments
print report bad tab
guest
Wanna post a correction for this tab? Suggest correction