Oops, an error
Loading. Please wait.

God Wears Gucci Tab

version 1
version 1

Whole song

Interactive

18,389 views 1 this week
3 commentsread comments
1 2 3 4 5
excellent!
x 15
add to favorites
launch autoscroll
font size
0
reset
how to read this tab
guitar tuner
Autoscroll
slow
fast
+/-
esc
set tempo
stop
Help us to improve Ultimate-Guitar.com Take our survey!
×
Contributor
-------------------------------------------------------------------------------
                             God Wears Gucci - Blessthefall
-------------------------------------------------------------------------------
Tabbed by:screamo_core

its their new single ... if u haven't listen to it yet 
go to their myspace /blessthefall or buy it @ itunes
well its not complete but its something to start with and
and missing some parts


pansy_screamo@hotmail.com

Tuning:Drop D

    Intro   (0:00-0:16)
e|-0-0-0-0-000-0-0-0-000-----|
B|-6-6-6-6-666-6-6-6-666-----|
G|---------------------------| Repeat till :16
D|---------------------------|
A|---------------------------|
E|---------------------------|

 0 (0:16-0:20)
e|----------------|
B|----------------|
G|----------------|
D|-000000-0-0-0---|
A|-000000-0-0-0---|
E|-000000-0-0-0---|

  (0:20-0:26)         (0:26-0:29)
e|----------------|-----------------------|
B|-------------6b-|-----------------------|just one time do this
G|----------------|-----------------------|than repeat the first part 
D|-0-00-0-0-00----|-0-00-0-0-00---8/1-----|       (0:29-0:34)
A|-0-00-0-0-00----|-0-00-0-0-00---8/1-----|
E|-0-00-0-0-00----|-0-00-0-0-00---8/1-----|

   (0:34-0:36)
e|---------------|
B|---------------|
G|---------------|
D|-88888888888---|
A|-88888888888---|
E|-88888888888---|


  Chorus (0:36-0:52)
e|------------------------------------------|
B|------------------------------------------|
G|------------------------------------------| X2
D|-00000000000-888888888888-5555555555555---| 
A|-00000000000-888888888888-5555555555555---|
E|-00000000000-888888888888-5555555555555---|

         (0:52-0:55)
e|--------0~----|
B|--------6~----|
G|--------------|
D|-0-00-0-------|
A|-0-00-0-------|
E|-0-00-0-------|
 
        (0:56-0:59)
e|---------------|
B|---------------|
G|---------------|
D|-888\10/5~-----|X2
A|-888\10/5~-----|
E|-888\10/5~-----|

   (1:00-1:04)
e|--------0~----|
B|--------6~----|
G|--------------|
D|-0-00-0-------|
A|-0-00-0-------|
E|-0-00-0-------|

   (1:04-1:08)
e|---------------|
B|---------------|
G|---------------|X2
D|-888\10/5~-----|
A|-888\10/5~-----|
E|-888\10/5~-----|

    (1:09-1:11)
e|--------0~----|
B|--------6~----|
G|--------------|
D|-0-00-0-------|
A|-0-00-0-------|
E|-0-00-0-------|

    (1:11-1:13)
e|---------------|
B|---------------|
G|---------------|
D|-888\10/5~-----| one time
A|-888\10/5~-----|
E|-888\10/5~-----|

    (1:14-1:23)
e|----------------------------------------------------------------|
B|----------------------------------------------------------------|
G|----------------------------------------------------1414141414--|
D|-55555555555588888888888000000000000005555555555555-X-X-X-X-X---|
A|-55555555555588888888888000000000000005555555555555-1212121212--|
E|-55555555555588888888888000000000000005555555555555-------------|

Chorus (1:24-1:54)
e|------------------------------------------|
B|------------------------------------------| 
G|------------------------------------------| X4
D|-00000000000-888888888888-5555555555555---|   
A|-00000000000-888888888888-5555555555555---|   
E|-00000000000-888888888888-5555555555555---|   

       (1:55-2:11)
e|-----------------------------|
B|-----------------------------|
G|-14~--10~--5-5\7~--7-9-10~---|
D|-X----X----X-X-X---X-X-X-----|this is also the outro
A|-12~--8-~--3-3\5~--5-7-8-~---|
E|-----------------------------|

   (2:11-2:42)
e|------|
B|------|have no idea what this part is
G|------|
D|------|
A|------|
E|------|

    (2:42-3:12) is this solo??
e|-------------------------------------------------------------------------------------|
B|-------------------------------------------------------------------------------------|
G|-141414141414/1010\1515151515/1212121212/7777777\10101010101010\1212121212/9999999---|X2
D|-X-X-x-X-X-X--X-X--X-X-X-X-X--X-X-X-X-X--XXXXXXX-X-X-X-X-X-X-X--X-X-X-X-X--XXXXXXX---|
A|-121212121212/8-8-\1313131313/1010101010/5555555\8-8-8-8-8-8-8-\1010101010/7777777---|
E|-------------------------------------------------------------------------------------|

  Outro (3:13-3:50)
e|-----------------------------|
B|-----------------------------|
G|-14~--10~--5-5\7~--7-9-10~---|
D|-X----X----X-X-X---X-X-X-----|X2
A|-12~--8-~--3-3\5~--5-7-8-~---|
E|-----------------------------|


| /  slide up
| \  slide down
| h  hammer-on
| p  pull-off
| ~  vibrato
| b  bend
| +  harmonic
| x  Mute note
===============================================================================
comments
print report bad tab
3 comments total.
+1 reply
Emo_Blood 43 wrote on August 15 2009, 04:02 pm

This is mostly rythm correct?

+2 reply
screamo_core 714 wrote on August 15 2009, 06:27 pm

(2:11-2:42)
e|-15p1-------17p3-------12p1-------14p3--------|
B|----------------------------------------------|
G|--------X8---------X8---------X8---------X8---|X2
D|----------------------------------------------|
A|----------------------------------------------|
E|----------------------------------------------|
TAPPING
just got figured the blank part that i didn't tabbed

+1 reply
wtflolbbq 788 wrote on October 17 2009, 11:42 pm

e|-0-0-0-0-000-0-0-0-000-----|
B|-6-6-6-6-666-6-6-6-666-----|
G|-------------7-7-7-777-----| fix'd
D|---------------------------|
A|---------------------------|
E|---------------------------|

I want to post or [tab]
guest
You may want to rate the tab now too:
select rating
Please do not post tabs as comments. Select "correction" instead!