Oops, an error
Loading. Please wait.

Hey Baby Heres That Song You Wanted tab

version 2
version 2

Whole song

33,734 views 42 this week
7 commentsread comments
1 2 3 4 5
x 18
add to favorites
×
Save as Personal and add changes to this tab that will be seen only by you. Learn more ›
×
You can save this tab as Personal to edit and correct it or add notes. All changes will be seen only by you. Learn more »
launch autoscroll
font size
0
reset
how to read this tab
guitar tuner
backing track
0:00
0:00
edit
Autoscroll
slow
fast
+/-
esc
set tempo
stop
===========================================================================
         Hey Baby, Here's That Song You Wanted By Blessthefall
===========================================================================
Tuning- Drop D

| p = Pull-off 
| h = Hammer-on
| ~ = Sustain
| . = Palm mute 
| b = Bend
| / = slide down neck
~~~~~~~~~~~~~~~~~~~~~~~~~~~~~~~~~~~~~~~~~~~~~~~~~~~~~~~~~~~~~~~~~~~~~~~~~~~~
This tab is correct to my knowledge and ear

PLEASE RATE!!!!!!!!!!

=UPDATE=
some of the tabs were incorrect they have been fixed. thanks ;)! ENJOY!!
~~~~~~~~~~~~~~~~~~~~~~~~~~~~~~~~~~~~~~~~~~~~~~~~~~~~~~~~~~~~~~~~~~~~~~~~~~~~


E|--------------------------------------------------------|
B|--------------------------------------------------------|
G|--10-11-0-6-8-0-11-15-11-13-11-0-10-0-10----------------|
D|--------------------------------------------------------|
A|--------------------------------------------------------|
D|--------------------------------------------------------|


E|--------------------------------------------------------|
B|--------------------------------------------------------|
G|-10-11-0-6-8-0-11-15-11-13-11-0-15p11h15p11h13p11h13p11h|
D|--------------------------------------------------------|
A|--------------------------------------------------------|
D|--------------------------------------------------------|


E|--------------------------------------------------------|
B|--------------------------------------------------------|
G|--10-11-0-6-8-0-11-15-11-13-11-0-10-0-10----------------|
D|--------------------------------------------------------|
A|--------------------------------------------------------|
D|--------------------------------------------------------|


E|--------------------------------------------------------|
B|--------------------------------------------------------|
G|-10-11-0-6-8-0-11-15-11-13-11-0-15p11h15p11h13p11h13p11h|
D|--------------------------------------------------------|
A|--------------------------------------------------------|
D|--------------------------------------------------------|


E|--------------------------------------------------------------|
B|--------------------------------------------------------------|
G|--10-11-0-11-13-0-13-15-0-15-0-0-13-0-13-15-0-----------------|
D|--------------------------------------------------------------|
A|--------------------------------------------------------------|
D|--------------------------------------------------------------|


E|-------------------------------------------------------------|
B|-------------------------------------------------------------|
G|--10-11-0-11-13-0-13-15-0-15-0-0-16-15-13-15-----------------|
D|-------------------------------------------------------------|
A|-------------------------------------------------------------|
D|-------------------------------------------------------------|


E|--------------------------------------------------------|
B|--------------------------------------------------------|
G|--10-11-0-5-8-0-11-15-11-13-11-0-10-0-10-11-------------|
D|--------------------------------------------------------|
A|--------------------------------------------------------|
D|--------------------------------------------------------|


E|--------------------------------------------------------|
B|--------------------------------------------------------|
G|-10-11-0-6-8-0-11-15-11-13-11-0-15p11h15p11h13p11h13p11h|
D|--------------------------------------------------------|
A|--------------------------------------------------------|
D|--------------------------------------------------------|


E|---------------------------------------------------14------|
B|------------------16---------------------16----------------|
G|-------------------------------------------------------14b-|     X7
D|--13--13--13--13-----13--13--13--13--13-----13--13---------|
A|-----------------------------------------------------------|
D|-----------------------------------------------------------|
    .   .   .   .       .   .   .   .   .      .   .


E|-----------------------------------------------------------|
B|-----------------------------------------------------------|
G|--10-10-10-10-10-10-10-10-10-10-10-10-10/------------------|
D|-----------------------------------------------------------|
A|--8--8--8--8--8--8--8--8--8--8--8--8--8/-------------------|
D|-----------------------------------------------------------|


E|--------------------------------------------------------|
B|--------------------------------------------------------|
G|--10-11-0-6-8-0-11-15-11-13-11-0-10-0-10----------------|
D|--------------------------------------------------------|
A|--------------------------------------------------------|
D|--------------------------------------------------------|


E|--------------------------------------------------------|
B|--------------------------------------------------------|
G|-10-11-0-6-8-0-11-15-11-13-11-0-15p11h15p11h13p11h13p11h|
D|--------------------------------------------------------|
A|--------------------------------------------------------|
D|--------------------------------------------------------|


E|--------------------------------------------------------------|
B|--------------------------------------------------------------|
G|--10-11-0-11-13-0-13-15-0-15-0-0-13-0-13-15-0-----------------|
D|--------------------------------------------------------------|
A|--------------------------------------------------------------|
D|--------------------------------------------------------------|


E|-------------------------------------------------------------|
B|-------------------------------------------------------------|
G|--10-11-0-11-13-0-13-15-0-15-0-0-16-15-13-15-----------------|
D|-------------------------------------------------------------|
A|-------------------------------------------------------------|
D|-------------------------------------------------------------|


E|--------------------------------------------------------|
B|--------------------------------------------------------|
G|--10-11-0-5-8-0-11-15-11-13-11-0-10-0-10-11-------------|
D|--------------------------------------------------------|
A|--------------------------------------------------------|
D|--------------------------------------------------------|


E|--------------------------------------------------------|
B|--------------------------------------------------------|
G|-10-11-0-6-8-0-11-15-11-13-11-0-15p11h15p11h13p11h13p11h|
D|--------------------------------------------------------|
A|--------------------------------------------------------|
D|--------------------------------------------------------|


E|---------------------------------------------------14------|
B|------------------16---------------------16----------------|
G|-------------------------------------------------------14b-|     X7
D|--13--13--13--13-----13--13--13--13--13-----13--13---------|
A|-----------------------------------------------------------|
D|-----------------------------------------------------------|
    .   .   .   .       .   .   .   .   .      .   .


E|-----------------------------------------------------------|
B|-----------------------------------------------------------|
G|--10-10-10-10-10-10-10-10-10-10-10-10-10/------------------|
D|-----------------------------------------------------------|
A|--8--8--8--8--8--8--8--8--8--8--8--8--8/-------------------|
D|-----------------------------------------------------------|


E|--------------------------------------------------------|
B|--------------------------------------------------------|
G|--10-11-0-6-8-0-11-15-11-13-11-0-10-0-10----------------|
D|--------------------------------------------------------|
A|--------------------------------------------------------|
D|--------------------------------------------------------|


E|--------------------------------------------------------|
B|--------------------------------------------------------|
G|-10-11-0-6-8-0-11-15-11-13-11-0-15p11h15p11h13p11h13p11h|
D|--------------------------------------------------------|
A|--------------------------------------------------------|
D|--------------------------------------------------------|


E|--------------------------------------------------------------|
B|--------------------------------------------------------------|
G|--10-11-0-11-13-0-13-15-0-15-0-0-13-0-13-15-0-----------------|
D|--------------------------------------------------------------|
A|--------------------------------------------------------------|
D|--------------------------------------------------------------|


E|-------------------------------------------------------------|
B|-------------------------------------------------------------|
G|--10-11-0-11-13-0-13-15-0-15-0-0-16-15-13-15-----------------|
D|-------------------------------------------------------------|
A|-------------------------------------------------------------|
D|-------------------------------------------------------------|


E|--------------------------------------------------------|
B|--------------------------------------------------------|
G|--10-11-0-5-8-0-11-15-11-13-11-0-10-0-10-11-------------|
D|--------------------------------------------------------|
A|--------------------------------------------------------|
D|--------------------------------------------------------|


E|--------------------------------------------------------|
B|--------------------------------------------------------|
G|-10-11-0-6-8-0-11-15-11-13-11-0-15p11h15p11h13p11h13p11h|
D|--------------------------------------------------------|
A|--------------------------------------------------------|
D|--------------------------------------------------------|


E|------------------------------------------------------------------|
B|------------------------------------------------------------------|
G|------------------------------------------------------------------|
D|--9-9-9-9-9-9-9-9-9-9-9-9-9-9-9-9-6-6-6-6-6-6-6-6-6-6-6-6-6-6-6-6-|
A|--9-9-9-9-9-9-9-9-9-9-9-9-9-9-9-9-6-6-6-6-6-6-6-6-6-6-6-6-6-6-6-6-|
D|--9-9-9-9-9-9-9-9-9-9-9-9-9-9-9-9-6-6-6-6-6-6-6-6-6-6-6-6-6-6-6-6-|


E|---------------------------------------------|
B|---------------------------------------------|
G|---------------------------------------------|
D|--------------------------1~~~-1-1~~~-1-1~~~-|
A|--------------------------1~~~-1-1~~~-1-1~~~-|
D|---1--1--1--1--1--1--1--1-1~~~-1-1~~~-1-1~~~-|
     .  .  .  .  .  .  .  .      .      .

E|----------------------------------------------------------------|
B|----------------------------------------------------------------|
G|----------------------------------------------------------------|
D|--------------------------6~~~-6-6~~~-6-8p-4h-8p-4h-------------|    X2
A|---4--4--4--4--4--4--4--4-4~~~-4-4~~~-4-------------8p-4h-8p-4h-|
D|----------------------------------------------------------------|
     .  .  .  .  .  .  .  .      .      .

E|------------------------------------------------------------|
B|------------------------------------------------------------|
G|------------------------------------------------------------|
D|--9-9-9-9-9-9-9-9-9-9-9-9-9-9-9-9-6~~~6~~~6~~~~~1~~~~~~~~~~-|
A|--9-9-9-9-9-9-9-9-9-9-9-9-9-9-9-9-6~~~6~~~6~~~~~1~~~~~~~~~~-|
D|--9-9-9-9-9-9-9-9-9-9-9-9-9-9-9-9-6~~~6~~~6~~~~~1~~~~~~~~~~-|


E|--------------------------|
B|--------------------------|
G|--------------------------|
D|--9~~~~~~~~~~1----------/-|
A|--9~~~~~~~~~~1----------/-|
D|--9~~~~~~~~~~1----------/-|


E|--------------------------------------------------------|
B|--------------------------------------------------------|
G|--10-11-0-6-8-0-11-15-11-13-11-0-10-0-10----------------|
D|--------------------------------------------------------|
A|--------------------------------------------------------|
D|--------------------------------------------------------|


E|--------------------------------------------------------|
B|--------------------------------------------------------|
G|-10-11-0-6-8-0-11-15-11-13-11-0-15p11h15p11h13p11h13p11h|
D|--------------------------------------------------------|
A|--------------------------------------------------------|
D|--------------------------------------------------------|


E|--------------------------------------------------------------|
B|--------------------------------------------------------------|
G|--10-11-0-11-13-0-13-15-0-15-0-0-13-0-13-15-0-----------------|
D|--------------------------------------------------------------|
A|--------------------------------------------------------------|
D|--------------------------------------------------------------|


E|-------------------------------------------------------------|
B|-------------------------------------------------------------|
G|--10-11-0-11-13-0-13-15-0-15-0-0-16-15-13-15-----------------|
D|-------------------------------------------------------------|
A|-------------------------------------------------------------|
D|-------------------------------------------------------------|


E|--------------------------------------------------------|
B|--------------------------------------------------------|
G|--10-11-0-5-8-0-11-15-11-13-11-0-10-0-10-11-------------|
D|--------------------------------------------------------|
A|--------------------------------------------------------|
D|--------------------------------------------------------|


E|--------------------------------------------------------|
B|--------------------------------------------------------|
G|-10-11-0-6-8-0-11-15-11-13-11-0-15p11h15p11h13p11h13p11h|
D|--------------------------------------------------------|
A|--------------------------------------------------------|
D|--------------------------------------------------------|


E|--------------------------------------------------------|
B|--------------------------------------------------------|
G|--10-11-0-6-8-0-11-15-11-13-11-0-10-0-10----------------|
D|--------------------------------------------------------|
A|--------------------------------------------------------|
D|--------------------------------------------------------|


E|--------------------------------------------------------|
B|--------------------------------------------------------|
G|-10-11-0-6-8-0-11-15-11-13-11-0-15p11h15p11h13p11h13p11h|
D|--------------------------------------------------------|
A|--------------------------------------------------------|
D|--------------------------------------------------------|


E|--------------------------------------------------------------|
B|--------------------------------------------------------------|
G|--10-11-0-11-13-0-13-15-0-15-0-0-13-0-13-15-0-----------------|
D|--------------------------------------------------------------|
A|--------------------------------------------------------------|
D|--------------------------------------------------------------|


E|-------------------------------------------------------------|
B|-------------------------------------------------------------|
G|--10-11-0-11-13-0-13-15-0-15-0-0-16-15-13-15-----------------|
D|-------------------------------------------------------------|
A|-------------------------------------------------------------|
D|-------------------------------------------------------------|


E|--------------------------------------------------------|
B|--------------------------------------------------------|
G|--10-11-0-5-8-0-11-15-11-13-11-0-10-0-10-11-------------|
D|--------------------------------------------------------|
A|--------------------------------------------------------|
D|--------------------------------------------------------|


E|---------------------------------------------|
B|---------------------------------------------|
G|--10-11-0-6-8-0-11-15-11~~10~~8~~10~~8~~~~~~-|
D|---------------------------------------------|
A|---------------------------------------------|
D|---------------------------------------------|
Suggest correction
Creating personal tab
Creating personal tab
You can edit any tab online and save it as your Personal.

You can edit, replace or remove any tab part or add personal notes – all changes will be seen only by you.

Personal tabs can be accessed anytime from any device, even offline.
Learn more »
comments
print report bad tab
7 comments total. Showing first comments.
+1 reply
Shred_Wolf 10 Dec 08, 2010 07:09 AM

I'm busy with finals now so I can't play it but I know to play it in Drop D, I just moved every note from the other tab down 1 note so this looks pretty right to me.

I meant to tab it out but never got the time. Good job bud.

Minor correction at the end of the first variation of the riff i think it should be

G|--10-11-0-6-8-0-11-15-11-13-11-0-10-0-10-11-------------|

0 reply
xXDisasterXx 56 Dec 11, 2010 07:37 PM

thanks man! :) ill check out your correction.

+1 reply
adrinhxc 51 Dec 23, 2010 02:43 PM

actually, this is in drop Db (or C#, which ever you wanna call it)
cause the whole section where you use the bar chords 9, 6, and 1, should actually be 8,5, and 0. and the main riff sounds off with the opens. anywho, this is a prettty sick tab, better then the last, but just drop every note 1 fret and itll be better.

guest
You may want to rate the tab now too:
select rating
Wanna post a correction for this tab? Suggest correction