Oops, an error
Loading. Please wait.

Higinia Tab

version 4
version 4

Whole song

Interactive

1,386 views 1 this week
no commentswrite comment
1 2 3 4 5
please rate
add to favorites
launch autoscroll
font size
0
reset
how to read this tab
guitar tuner
Tab Pro tools
  • play this tab
  • loop segment
  • change instrument
  • show fretboard
  • metronome
×
Best way to learn
"Higinia"
Autoscroll
slow
fast
+/-
esc
set tempo
stop
Difficulty
Tuning
intermediate
D A D G B E
----------------------------------------------------------------------------
                    Band:Blessthefall  Song:Higinia
----------------------------------------------------------------------------
Tabbed By:Pacifica-God-12
Most of this is right.

Intro
e--------------------------|
B--------------------------|
G--------------------------|
D-8-7----------10----------|
A-----10-7-8-7----0-7-0-7-8|
D--------------------------|
Verse (T=10)
(If you could, stay for just..)
e-----------------------------------------------------------------|
B-----------------------------------------------------------------|
G-------------T-TT-T-12-12-5-7-77-7-9-9-9-------------------------|
D-------------x-xx-x-xx-xx-x-x-xx-x-x-x-x-8-7----------10---------|
A-------------8-88-8-10-10-3-5-55-5-7-7-7-----10-7-8-7---0-7-0-7-8|
D0-00-00-00-0-----------------------------------------------------|
(..A little bit, A little while, A little bit with me...)
e-------------|
B-------------|
G7-10-7-9-7-12| X4
D-------------|
A-------------|
D-------------|
(..You're what makes me..)

Verse (T=10)
(..And if god could, keep you with me..)
e-----------------------------------------------------------------|
B-----------------------------------------------------------------|
G-------------T-TT-T-12-12-5-7-77-7-9-9-9-------------------------|
D-------------x-xx-x-xx-xx-x-x-xx-x-x-x-x-8-7----------10---------|
A-------------8-88-8-10-10-3-5-55-5-7-7-7-----10-7-8-7---0-7-0-7-8|
D0-00-00-00-0-----------------------------------------------------|
(..I would trade just about anything..)
e-------------|
G-------------|
B7-10-7-9-7-12| X4
D-------------|
A-------------|
D-------------|
(You're what makes me, want to change things..)
e------------------------------------------------|
B------------------------------------------------|
G------------------------------------------------|
D------------------------------------------------|
A55557777778888888777777-555555777777888888777777|
D55555555555555555555555-888888888888888888888888|
(..I would die, just to live and yet we all, live to die..)
e---------------------------|
B---------------------------|
G---------------------------|
D---------------------------|
A0------0------0------0-----|
D0-0000-0-0000-0-0000-0-0000|
(You're what makes me, want to change!..)
e-------------------------------------|
B-------------------------------------|
G-------------------------------------|
D-------------------------------------|
A55557777778888888777777-5555557777778|
D55555555555555555555555-8888888888888|
(..You,will,not,die..)
e---------------------------------------------------------------------------|
B---------------------------------------------------------------------------|
G---------------------------------------------------------------------------|
D---------------------------------------------------------------------------|
A---------------------------------------------------------------------------|
D00-0-000-0-000-0-00-0-0-00-0-000-0-000-0-00-0-0-00-0-000-0-00-0-0-00-0-00-0|

Verse (T=10)
(If you could, stay for just..)
e-----------------------------------------------------------------|
B-----------------------------------------------------------------|
G-------------T-TT-T-12-12-5-7-77-7-9-9-9-------------------------|
D-------------x-xx-x-xx-xx-x-x-xx-x-x-x-x-8-7----------10---------|
A-------------8-88-8-10-10-3-5-55-5-7-7-7-----10-7-8-7---0-7-0-7-8|
D0-00-00-00-0-----------------------------------------------------|
(..A little bit, A little while, A little bit with me...)
e-------------|
B-------------|
G7-10-7-9-7-12| X4
D-------------|
A-------------|
D-------------|
(..You're what makes me..)

Verse (T=10)
(..And if god could, keep you with me..)
e-----------------------------------------------------------------|
B-----------------------------------------------------------------|
G-------------T-TT-T-12-12-5-7-77-7-9-9-9-------------------------|
D-------------x-xx-x-xx-xx-x-x-xx-x-x-x-x-8-7----------10---------|
A-------------8-88-8-10-10-3-5-55-5-7-7-7-----10-7-8-7---0-7-0-7-8|
D0-00-00-00-0-----------------------------------------------------|
(..I would trade just about anything..)
e-------------|
G-------------|
B7-10-7-9-7-12| X4
D-------------|
A-------------|
D-------------|
(BREAKDOWN)(T=10)-(Y=12)-(U=13)
e--------------------------------------------------|
B--------------------------------------------------|
G--------------------------------------------------|
D--------------------------------------------------|
A--7-78--8-8T--T-T8--8-87--7-78--8-8T--T-T8--YUYUYU|
D00-0--00-0--00-0--00-0--00-0--00-0--00-0--00------|

(I'd trade anything,Take a step further back to where you belong
Take a look at your life what have you become etc..)T=10

e---------------------------------------------------------|(Do this until
B---------------------------------------------------------|you will not die)
G---------------------------------------------------------|
D--------------------------------------------87-----------|
A------7-7-78--------8-8-8T------7-7-78--------T87--------|
D00-0-0-0-0---00-0-0-------00-0-0-0-0--00-0-0-----T-00-0-0|

(You,will,not,die)
e-------------------------------------------|
B-------------------------------------------|
G-------------------------------------------|
D-------------------------------------------|
A-------------------------------------------|
D00-0-000-0-000-0-00-0-0-00-0-000-0-000-0-07|

I do not own the song, I only own thae tabs, nothing else.
Thank You,
Pacifica-god-12
comments
We did not receive enough feedback on this tab! Please rate:
print report bad tab
1 2 3 4 5
I want to post or [tab]
guest
You may want to rate the tab now too:
select rating
Please do not post tabs as comments. Select "correction" instead!