Oops, an error
Loading. Please wait.

Promised Ones intro tab

version 1
version 1

Intro

Interactive

11,589 views 12 this week
2 commentsread comments
1 2 3 4 5
x 4
add to favorites
×
Save as Personal and add changes to this tab that will be seen only by you. Learn more ›
×
You can save this tab as Personal to edit and correct it or add notes. All changes will be seen only by you. Learn more »
launch autoscroll
font size
0
reset
how to read this tab
guitar tuner
edit
Autoscroll
slow
fast
+/-
esc
set tempo
stop
PROMISED ONES - Blessthefall
Tabbed by: nschenone
Email: nschenone@aol.com

Tuning: Drop D

3x

e|---------------------------------------------------------------------------|
B|---------------------------------------------------------------------------|
G|---------------------------------------------------------------------------|
D|-6-6--6-6--6-6---2--4--6--7--4-4--6--7--4--4-4--4h6------------------------|
A|---------------4-----------------------------------------------------------|
D|---------------------------------------------------------------------------|

1x

e|---------------------------------------------------------------------------|
B|---------------------------------------------------------------------------|
G|---------------------------------------------------------------------------|
D|-6-6--6-6--6-6---2--4--6--7--4-4--6--7--4--4-4--4h6-/7-/9------------------|
A|---------------4-----------------------------------------------------------|
D|---------------------------------------------------------------------------|


*not sure about this part
1x

e|---------------------------------------------------------------------------|
B|---------------------------------------------------------------------------|
G|---------------------------------------------------------------------------|
D|-14-13-11----------14-13---------------------------------------------------|
A|----------14-12-11---------------------------------------------------------|
D|---------------------------------------------------------------------------|
   *  *  *  *  *  *  *  *


************************************

| *   palm mute
| /   slide up
| \   slide down
| h   hammer-on
| p   pull-off
| ~   vibrato
| +   harmonic
| x   Mute note
| b   Bend
| pb  Pre-bend
| br  Bend release
| pbr Pre-bend release
| brb Bend release bend

************************************
Suggest correction
Creating personal tab
Creating personal tab
You can edit any tab online and save it as your Personal.

You can edit, replace or remove any tab part or add personal notes – all changes will be seen only by you.

Personal tabs can be accessed anytime from any device, even offline.
Learn more »
comments
print report bad tab
2 comments total.
0 reply
PotatoSpud 145 Apr 04, 2012 06:56 AM

It's played in Drop C# like this:

D#|--------------------------------------------------------|
A#|--------------------------------------------------------|
F#|--------------------------------------------------------|
C#|-7-----7-7--7-------5---7--8----5---7---8-7-5--5h7------|
G#|---------------5h8--------------------------------------|
C#|---0-0----0---0----0--0--0----0---0---0----0--0---------|

That's only off the top of my head, but I'm pretty sure it's something like this..

0 reply
xXxA7X~Fan07xXx 61 Sep 18, 2014 08:41 PM

He's got it right just the wrong tuning. We do need a full regular tab though with both guitars. Would be nice.

guest
You may want to rate the tab now too:
select rating
Wanna post a correction for this tab? Suggest correction