Oops, an error
Loading. Please wait.

Rise Up tab

version 1
version 1

Whole song

Interactive

16,655 views 9 this week
2 commentsread comments
1 2 3 4 5
x 3
add to favorites
×
Save as Personal and add changes to this tab that will be seen only by you. Learn more ›
×
You can save this tab as Personal to edit and correct it or add notes. All changes will be seen only by you. Learn more »
launch autoscroll
font size
0
reset
how to read this tab
guitar tuner
edit
Autoscroll
slow
fast
+/-
esc
set tempo
stop
ok ok this is a pretty awesome song. ive been playing along with the CD and this is as 
as perfection as I could get. not 100% but its prolly the closest thing to it on UG. enjoy!!!


[INTRO]
The intro is all FINGER TAPPING
place your fingers on your right hand( or your left hand here if you're left handed)

e]---8--------------------|
b]------10----------------|
g]-----------10-----------|
d]------------------------|
a]------------------------|
d]------------------------|
Note: you DO NOT play this. Im just showing you where your first hand goes for the intro
just in case you couldnt figure it out =]]]

Ok...this is how the intro goes

e]--13p8---------------------------------------------|
b]-------13p10-----------------13p10--11p10----------|
g]--------------12p10--14p10-------------------------|x4]
d]---------------------------------------------------|
a]---------------------------------------------------|
d]---------------------------------------------------|
may need time to figure that out..srry its kinda hard =P


on the 4th time guitar 2 plays:

e]--------------------------|
b]--------------------------|
g]--------------------------|
d]-000000000000-------------|
a]-000000000000-------------|
d]-000000000000-------------|
     -----PM----------------|


[Verse 1]

(guitar 1)                                              [play the sweet riff below TWICE!]
e]------------------------------------------------------------|
b]------------------------------------------------------------|
g]--------10--10--10--10--------------------------------------|
d]-0--00--x---x---x---x-[x12]------5h7p0------2p0-3p0---------|
a]-0--00--8---8---8---8-------5h8--------8p0------------------|
d]-0--00------------------------------------------------------|
then....

e]--------------------------------------------------------------------------------|
b]--------------------------------------------------------------------------------|
g]------10/12-12-12\7-77----------------------------------------------------------|
d]-3-33--x/-x--x--x\x-xx--------8h10p8-8p0-5p0-7p0--------8h10p8-8p0-2p0-3p0------|
a]-3-33--8/10-10-10\5-55--8h12-----------------------8h12-------------------------|
d]-3-33---------------------------------------------------------------------------|

[guitar 2]

e]--------------------------------------------------------------------|
b]--------------------------------------------------------------------|
g]-----------14-------------------------------------------------------|
d]-0-00-------x[x12]--5-------8------3333333--5555555-----------------|
a]-0-00------12------5[x16]---8[x16]-3333333--5555555-----------------|
d]-0-00--------------5-------8-------3333333--5555555-----------------|
the 14 is played in harmony with the beggining of guitar 1's part
       x
      12

Verse is also same as the chorus the..."I Stand Broken Please God Hear....."

Tabbing rest later
until then enjoy this stuff
peace

            
            
Suggest correction
Creating personal tab
Creating personal tab
You can edit any tab online and save it as your Personal.

You can edit, replace or remove any tab part or add personal notes – all changes will be seen only by you.

Personal tabs can be accessed anytime from any device, even offline.
Learn more »
Give kudos to tab author, rate the tab!
1 2 3 4 5
comments
print report bad tab
2 comments total.
0 reply
Xb4mvluvrX 167 May 04, 2008 03:16 PM

you should try and figure out the acoustic version of this song. cuz this one is pretty good lol. ive been working on the acoustic version but i only got guitar 2's part so it'd be cool if you could get guitar 1's lol

0 reply
bloodyskull 31 Jun 06, 2008 06:00 AM

finish tabbing out the rest of the song!
this is great.

guest
You may want to rate the tab now too:
select rating
Wanna post a correction for this tab? Suggest correction